20171003

ELLERT NORDMARK I REMEMBER ELVIS PRESLEY TAB (INSTRUMENTAL GUITAR COVER)

Ellert Nordmark plays I Remember Elvis Presley (Danny Mirror)
Very nice instrumental guitar cover.
Download the TAB below.



ELLERT NORDMARK I REMEMBER ELVIS PRESLEY TAB

GP5 + GP6 + PDF >>

Part 1

e-----------------------------------------------------------------------
B-----------------------------------------------------------------------
G-----------------------------------------------------------------------
D-----------0-2-4-4-4-4-2-0---------------------------------------------
A---4-4-4-4-----------------4-------------------------------------------
E-----------------------------------------------------------------------
    x x x x x x x x x x x x 


e-----------------------------------------------------------------------
B-----------------------------------------------------------------------
G----------------------------------2~-----------------------------------
D-------0-2-------0-2-2/4~-----2/4--------------------------------------
A---4---------4---------------------------------------------------------
E-----------------------------------------------------------------------


e-----------------------------------------------------------------------
B-----------------------------------------------------------------------
G---1---2-2/4-2---1-----------------------------------------------------
D-------------------4-2~------------------------------------------------
A-----------------------------------------------------------------------
E-----------------------------------------------------------------------


e-----------------------------------------------------------------------
B-----------------------------------------------------------------------
G-----------------------------------------------------------------------
D-------0-2---2---0---2---0~--------------------------------------------
A---4---------------4---------------------------------------------------
E-----------------------------------------------------------------------


e-----------------------------------------------------------------------
B-----------------------------------------------------------------------
G-----------------------------------------------------------------------
D---0---2-2/4-4---2-1-2~------------------------------------------------
A-----------------------------------------------------------------------
E-----------------------------------------------------------------------


e-----------------------------------------------------------------------
B-----------------------------------------------------------------------
G----------------------------------2~-----------------------------------
D-------0-2-------0-2-2/4~-----2/4-4~-----------------------------------
A---4---------4---------------------------------------------------------
E-----------------------------------------------------------------------


e-----------------------------------------------------------------------
B-----------------------------------------------------------------------
G---1---2-2/4---2-------------------------------------------------------
D---2---4-4/6---4---6-4-2~---------------2------------------------------
A-------------------7-5-4~---------2/4-------4-0------------------------
E------------------------------------------------2~---------------------


e-----------------------------------------------------------------------
B-----------------------------------------------------------------------
G-----------------------------------------------------------------------
D-------0-2---2---0---2---0~--------------------------------------------
A---4---------------4---------------------------------------------------
E-----------------------------------------------------------------------


e-----------------------------------------------------------------------
B-----------------------------------------------------------------------
G---1---1-2-2/4-4---2-1-2~----------------------------------------------
D----------------------------------2-2h4~-----4-2-----------------------
A------------------------------4-5----------------5-4-------------------
E-----------------------------------------------------------------------


e-----------------------------------------------------------------------
B-----------------------------------------------------------------------
G-----------------------------------------------------------------------
D---------------2-------------------------------------------------------
A---0---2-2/4-------4-0-2/4---2~----------------------------------------
E-----------------------------------------------------------------------


e-----------------------------------------------------------------------
B-----------------------------------------------------------------------
G---------------2---2---2-----------------------------------------------
D---2---2-2-2h4-------4---4-2~------------------------------------------
A-----------------------------------------------------------------------
E-----------------------------------------------------------------------



DOWNLOAD THIS TAB IN GUITAR PRO



  • click 'Free Download'
  • add your e-mail address
  • you will get an e-mail with your download links (in a few seconds)
  • download the Guitar Pro 6 tab + GP5 + PDF for free
  • and that's all ...


Guitar Pro: a complete workshop for guitarists at an affordable price