20171106

DJANGO REINHARDT TEARS TAB (GUITAR COVER BY SAMANTHA WELLS)

Samantha Wells plays Tears by Django Reinhardt
Nice guitar cover in standard tuning
Download the TAB below



DJANGO REINHARDT TEARS TAB

GP5 + GP6 + PDF >>

Part 1

e---------------------------------3---1---------------------------------
B---------1-----------1---------3------------5/6---5--------------------
G---------2-----------2-------2-------------4---------------------------
D-------2-----------2---------------------0-----------------------------
A---0---------0-3---------0-2-------------------------------------------
E---------------------------------------4-------------------------------


e---------------------------------3---1---------------------------------
B---------1-----------1---------3------------5/6---5--------------------
G---------2-----------2-------2-------------4---------------------------
D-------2-----------2---------------------0-----------------------------
A---0---------0-3---------0-2-------------------------------------------
E---------------------------------------4-------------------------------


e-------0-0---0-1-----1-------------------------------------------------
B-------2-2---2-2-----2-----3-------3---------3-------------------------
G-------0-0---0-0-----0-----2---------2-----2---------------------------
D-------2-----------2-------3-----3-------3-----------------------------
A---1-----------1-----------0-------------------------------------------
E---------------------------------------1---------x---------------------

 
e-----------------------------------------------------------------------
B-------3-3---3-5-----5.----1---------1-------1-------------------------
G-------4-4---4-4-----4.----2-----------------2-------------------------
D-------3-3---3-3-----3.----------2---------2-2-------------------------
A-----------------------------------------------------------------------
E---4-----------4---------0-3-----------0-----3---0---------------------


e---------------------------------------------8.--7~--------------------
B-------1-1---1-3-----3.----0---------0---------------------------------
G-------2-2---2-2-----2.----2-----2---------0-9.--7~--------------------
D-------2-2---------------------0---------------------------------------
A-----------------------------------------------------------------------
E---2-----------2---------0-1-----------------------0-------------------


e--------7/8.--7~------5---5--------------------------------------------
B----------------------------------1.----5.-----9\----------------------
G------7-7/9.--7~----7-5---5-------1.----5.-----9\----------------------
D----------------------------------2.----6.----10\----------------------
A----------------------------0------------------------------------------
E----------------0---------------x-----x-----x--------------------------


e---------------------------------3---1---------------------------------
B---------1-----------1---------3------------5/6---5--------------------
G---------2-----------2-------2-------------4---------------------------
D-------2-----------2---------------------0-----------------------------
A---0---------0-3---------0-2-------------------------------------------
E---------------------------------------4-------------------------------



DOWNLOAD THIS TAB IN GUITAR PRO



  • click 'Free Download'
  • add your e-mail address
  • you will get an e-mail with your download links (in a few seconds)
  • download the Guitar Pro 6 tab + GP5 + PDF for free
  • and that's all ...


Guitar Pro: a complete workshop for guitarists at an affordable price