20171110

BURNS ERNST HELP ME MAKE IT THROUGH THE NIGHT TAB (INSTRUMENTAL GUITAR COVER)

Kris Kristofferson - Help Me Make It Through The Night
Instrumental guitar cover played by Burns Ernst
Download the TAB below



BURNS ERNST HELP ME MAKE IT THROUGH THE NIGHT TAB

GP5 + GP6 + PDF >>

Part 1

e-----------------------------------------------------------------------
B----------5---6-5-----3---5.-------------------------------------------
G------5----------------------------------------------------------------
D------------------------------5~---------------------------------------
A-----------------------------------------------------------------------
E-----------------------------------------------------------------------


e-----------------------------------------------------------------------
B------5-5---5h6---5---3------------------------------------------------
G------------------------5---5~-----------------------------------------
D-----------------------------------------------------------------------
A-----------------------------------------------------------------------
E-----------------------------------------------------------------------


e-----------------------------------------------------------------------
B------3---5-5/6---5---3-6----------------------------------------------
G------------------------------4~---------------------------------------
D-----------------------------------------------------------------------
A-----------------------------------------------------------------------
E-----------------------------------------------------------------------



e-----------------------------3-----------------------------------------
B------/6---6---5-3-----3-----3h5~--------------------------------------
G-------------------------5---------------------------------------------
D-----------------------------------------------------------------------
A-----------------------------------------------------------------------
E-----------------------------------------------------------------------


e-----------------------------------------------------------------------
B--------5-----6---5---3---5.-------------------------------------------
G------5----------------------------------------------------------------
D----5-------------------------5~---------------------------------------
A-----------------------------------------------------------------------
E-----------------------------------------------------------------------


e-----------------------------------------------------------------------
B------5---5-5h6---5---3------------------------------------------------
G------------------------5---5~-----------------------------------------
D-----------------------------------------------------------------------
A-----------------------------------------------------------------------
E-----------------------------------------------------------------------


e-----------------------------------------------------------------------
B------3-5---5h6---5---3-----3~-----------------------------------------
G------------------------5----------------------------------------------
D-----------------------------------------------------------------------
A-----------------------------------------------------------------------
E-----------------------------------------------------------------------


e-----------------------------------------------------------------------
B------/6---6---5---3-3-------5~----------------------------------------
G---------------------------5-5~----------------------------------------
D-----------------------------------------------------------------------
A-----------------------------------------------------------------------
E-----------------------------------------------------------------------





DOWNLOAD THE COMPLETE TAB HERE



  • click 'Free Download'
  • add your e-mail address
  • you will get an e-mail with your download links (in a few seconds)
  • download the Guitar Pro 6 tab + GP5 + PDF for free
  • and that's all ...


Guitar Pro: a complete workshop for guitarists at an affordable price