20171201

JOE BONAMASSA SLOE GIN GUITAR SOLO TAB (LIVE AT ROYAL ALBERT HALL)

Joe Bonamassa live Sloe Gin guitar solo with a Gibson Les Paul at Royal Albert Hall
The solo starts about 5:10 in this video and goes right until 6:40
Download the TAB below



JOE BONAMASSA SLOE GIN SOLO TAB

GP5 + GP6 + PDF >>

~ 5:10

e-----------------------------------------------------------------------
B---13(15)-------13(15)---13(15)~---------------------------------------
G-----------------------------------------------------------------------
D-----------------------------------------------------------------------
A-----------------------------------------------------------------------
E-----------------------------------------------------------------------


e---10--13(15)-13(15)------------(15)(13)p10-13~-----13.----------------
B-----10----------------------------------------------------------------
G-----------------------------------------------------------------------
D-----------------------------------------------------------------------
A-----------------------------------------------------------------------
E-----------------------------------------------------------------------


e---15(17)---(18)-15(17)-----(15)-13---------10-------------------------
B---------------------------------x-15-15~-----10-13(15)~---------------
G-----------------------------------------------------------------------
D-----------------------------------------------------------------------
A-----------------------------------------------------------------------
E-----------------------------------------------------------------------



e---10------------10-13-12(13)---12(13)(12)-10----12(13)(12)-10---------
B-----13p10--10h13-----------------------------13---------------13------
G----------12-----------------------------------------------------------
D-----------------------------------------------------------------------
A-----------------------------------------------------------------------
E-----------------------------------------------------------------------


e----------13-----------------------------------------------------------
B-----(15)----13(15)~---\-----------------------------------------------
G----------------------------10-9-7/9---7~------------------------------
D-------------------------/7--------------------------------------------
A--------------------------------------------\5~------------------------
E-----------------------------------------------------------------------


e-----------------------------------------------------------------------
B---------------------------------------------------------------10------
G------------------------------------------7---9---10---10--12----10----
D----------3~---5-3-5/7---7(8)(7)-5~---5-7---7---7---/10--10--10--------
A------3-5--------------------------------------------------------------
E-----------------------------------------------------------------------


e------------13------------10--12--13--15~---13-15-15(17)-15(17)--------
B---13(15)-----13(15)~-------10--10--13---------------------------------
G-----------------------------------------------------------------------
D-----------------------------------------------------------------------
A-----------------------------------------------------------------------
E-----------------------------------------------------------------------


e---15(17)-15(17)-------(17)(15)p13-------------------------------------
B----------------------------------15~-------17(18)(17)-15~-------------
G--------------------------------------------x--------------------------
D-----------------------------------------------------------------------
A-----------------------------------------------------------------------
E-----------------------------------------------------------------------


e---------13-15-17~---17-18p17p15-17~---17-18p17p15-17~-----------------
B---13-15---------------------------------------------------------------
G-----------------------------------------------------------------------
D-----------------------------------------------------------------------
A-----------------------------------------------------------------------
E-----------------------------------------------------------------------


e---17-18p17p15-17~---17-20p17p15-17~---17-15-15-13---------------------
B-----------------------------------------------------------------------
G-----------------------------------------------------------------------
D-----------------------------------------------------------------------
A-----------------------------------------------------------------------
E-----------------------------------------------------------------------


e---15(17)---(18)-15(17)-----(17)(15)p13------10------------------------
B---------------------------------------15~------10-13(15)~-------------
G-----------------------------------------------------------------------
D-----------------------------------------------------------------------
A-----------------------------------------------------------------------
E-----------------------------------------------------------------------





DOWNLOAD THE COMPLETE SOLO TAB IN GUITAR PRO



  • click 'Free Download'
  • add your e-mail address
  • you will get an e-mail with your download links (in a few seconds)
  • download the Guitar Pro 6 tab + GP5 + PDF for free
  • and that's all ...


Guitar Pro: a complete workshop for guitarists at an affordable price