20171218

STEVIE RAY VAUGHAN LOOKIN' OUT THE WINDOW TAB (GUITAR SOLO, LIVE AT DAYTONA BEACH 1987)

Stevie Ray Vaughan - Lookin' Out The Window guitar solo
This solo is taken from a live version - 1987 Daytona Beach
It starts about 1:58 and goes until 3:19 in this video
Download the TAB below


STEVIE RAY VAUGHAN LOOKIN' OUT THE WINDOW SOLO TAB (LIVE)

GP5 + GP6 + PDF >>

Solo (1:58 - 3:19)

eb---------------------------------------------5------------------------
Bb---------------------------------------5---7-----x--------------------
Gb-------2-2---2-----2-----------2---2----------------------------------
Db---------------5'-----------------------------------------------------
Ab---0-----------------5'--4-0-----0---0--------------------------------
Eb----------------------------------------------------------------------


eb---8(10)-----8(10)---8-5---8-5-----5---5------------------------------
Bb---x-----------------------------5------------------------------------
Gb-----------------------------------------7(9)---7-5~------------------
Db----------------------------------------------------------------------
Ab----------------------------------------------------------------------
Eb----------------------------------------------------------------------


eb------------------5---5----5----------5-------------------------------
Bb---7p5----------5---5---8'---5------5---8------8----------------------
Gb---7p5-----7(9)----------------7(9)-------7(9)---(9)(7)-5~----7p5-----
Db-------7-5--------------------------------------------------------7-5-
Ab----------------------------------------------------------------------
Eb----------------------------------------------------------------------
         x x



eb-------------------------x--------5-----------------------------------
Bb-------------------------x------5---8p5-------------------------------
Gb---9(12)-----\7---5--------7(9)---------7(9)-7-5---------5h6---5------
Db--------------------7~---------------------------7-7~---7----7--------
Ab----------------------------------------------------------------------
Eb----------------------------------------------------------------------


eb----------------------------------------------------------------------
Bb------8-8----8-8----8-8----8-8----8-8----8-8----8-8----8-8------------
Gb---/9-9-9-/9-9-9-/9-9-9-/9-9-9-/9-9-9-/9-9-9-/9-9-9-/9-9-9------------
Db----------------------------------------------------------------------
Ab----------------------------------------------------------------------
Eb----------------------------------------------------------------------


eb----------------------------------------------------------------------
Bb-------12-12-----12-12-----12-12-----12-12----------------------------
Gb---/13-13-13-/13-13-13-/13-13-13-/13-13-13----------------------------
Db----------------------------------------------------------------------
Ab----------------------------------------------------------------------
Eb----------------------------------------------------------------------


eb----------------------------------------------------------------------
Bb-------15-15-15-15-15-15-17-17-17---\---------------------------------
Gb---/16-16-16-16-16-16-------------------------------------------------
Db----------------------------------------------------------------------
Ab----------------------------------------------------------------------
Eb----------------------------------------------------------------------


eb---------17-20(22)---20-17~--------------------------5----5---8'-5----
Bb--/17-20---------------------17-20-----------------5---8'---5------5--
Gb----------------------------------\7~---5---5-7(9)--------------------
Db------------------------------------------7---------------------------
Ab----------------------------------------------------------------------
Eb----------------------------------------------------------------------


eb---5---5-8(10)---(10)-8'-5--------------------------5---------5-------
Bb-----5---------------------5----------------------5---8(10)-----x-----
Gb----------------------------(9)(7)-5---------7(9)---------------------
Db-------------------------------------7--------------------------------
Ab---------------------------------------x---x--------------------------
Eb---------------------------------------5---5--------------------------


eb----------5---5-8'-5--------------------------------------------------
Bb--------5---5--------5------------------------------------------------
Gb---7(9)---------------\7-5---5-7(9)---7(9)---7(9)-7-5--------------5'-
Db---------------------------7--------------------------7--------5-7----
Ab--------------------------------------------------------7~---7--------
Eb----------------------------------------------------------------------


eb--------------5---------------------------5---------------------------
Bb------------5---8-5---------------------5--/10~---10~---10------------
Gb--------5-6---------8-7-5'----------5-6-------------------------------
Db---7~------------------------7~---7-----------------------------------
Ab----------------------------------------------------------------------
Eb----------------------------------------------------------------------





DOWNLOAD THIS SOLO TAB IN GUITAR PRO



  • click 'Free Download'
  • add your e-mail address
  • you will get an e-mail with your download links (in a few seconds)
  • download the Guitar Pro 6 tab + GP5 + PDF for free
  • and that's all ...


Guitar Pro: a complete workshop for guitarists at an affordable price