20180129

I COULD EASILY FALL IN LOVE WITH YOU TAB (INSTRUMENTAL GUITAR TAB)

I Could Easily Fall In Love With You instrumental guitar cover played by Tonyshad
Easy guitar instrumental of the old Cliff Richard song
Download the TAB under the video



I COULD EASILY FALL IN LOVE WITH YOU GUITAR INSTRUMENTAL TAB

GP5 + GP6 + PDF >>

Part 1

e-----------------------------------------------------------------------
B--------------2--------------------------------------------------------
G-------2h4---------4----2----1-----------------------------------------
D----------------------------------2----2/4----------2-2----------------
A-----------------------------------------------------------------------
E-----------------------------------------------------------------------


e-----------------------------------------------------------------------
B--------------2--------------------------------------------------------
G-------2h4---------4----2----1-----------------------------------------
D----------------------------------2----2/4~----------------------------
A-----------------------------------------------------------------------
E-----------------------------------------------------------------------


e-----------------------------------------------------------------------
B---------2----3----2-------------------5~------------------------------
G-------4----------------4----2----1.------------2-2~-------------------
D-----------------------------------------------------------------------
A-----------------------------------------------------------------------
E-----------------------------------------------------------------------


e-----------------------------------------------------------------------
B--------------2----3~--------2-----------------------------------------
G-------2-4------------------------4----2----1---------1----2~----------
D-------------------------------------------------4---------------------
A-----------------------------------------------------------------------
E-----------------------------------------------------------------------



DOWNLOAD THIS TAB IN GUITAR PRO



  • click 'Free Download'
  • add your e-mail address
  • you will get an e-mail with your download links (in a few seconds)
  • download the Guitar Pro 6 tab + GP5 + PDF for free
  • and that's all ...


Guitar Pro: a complete workshop for guitarists at an affordable price