20180106

TONYSHAD BOBBY'S GIRL TAB (SHADOWMAN PLAYS BOBBY'S GIRL)


Tonyshad plays an instrumental guitar cover of Bobby's Girl
White Fender Stratocaster forever !!!
Download the TAB below


TONYSHAD BOBBY'S GIRL TAB

GP5 + GP6 + PDF >>

Part 1

e-----------------------------------------------------------------------
B---------------3---5-3-------------------------------------------------
G-----------4-------------------------------------4---5-4---------------
D-------5-----------------5~------------------5-------------5~----------
A-----------------------------------------7-----------------------------
E-----------------------------------------------------------------------


e-----------------------------------------------------------------------
B---------------5.--3---------------------------------------------------
G-----------5-------------4-----4---2~----------------------------------
D-------5---------------------5-----------------------------------------
A-----------------------------------------------------------------------
E-----------------------------------------------------------------------


e-----------------------------------------------------------------------
B---------------3---5-3-------------------------------------------------
G-----------4-------------------------------------4---5-4---------------
D-------5-----------------5~------------------5-------------5~----------
A---------------------------------------7-------------------------------
E-----------------------------------------------------------------------



e-----------------------------------------------------------------------
B---------------5.--3---------------------------------------------------
G-----------5-------------4-4---4---2~----------------------------------
D-------5---------------------5-----------------------------------------
A-----------------------------------------------------------------------
E-----------------------------------------------------------------------


e---------------2.--------3-5-3-----------------------------------------
B-------3-3---5-------------------3~------0-----------------------------
G---------------------------------------------2-0~----------------------
D-----------------------------------------------------------------------
A-----------------------------------------------------------------------
E-----------------------------------------------------------------------


e-----------2-0---------------------------------------------------------
B-----------------0~----------------------------------------------------
G-----------------------------------------------------------------------
D-----------------------------------------------------------------------
A-----------------------------------------------------------------------
E-----------------------------------------------------------------------




DOWNLOAD THIS TAB IN GUITAR PRO



  • click 'Free Download'
  • add your e-mail address
  • you will get an e-mail with your download links (in a few seconds)
  • download the Guitar Pro 6 tab + GP5 + PDF for free
  • and that's all ...


Guitar Pro: a complete workshop for guitarists at an affordable price