20180212

MEMORY FROM CATS TAB (FINGERSTYLE CLASSICAL GUITAR TAB)

Memory from Cats easy fingerstyle classical guitar cover played by Steven Law
It's in Dropped D tuning and no Capo is used
Download the TAB under the video



MEMORY FROM CATS CLASSICAL GUITAR TAB

GP5 + GP6 + PDF >>

Part 1

e-----------------------------------------------------------------------
B-----------2-----------2-----------2-----------2-----------------------
G-----------------------------------------------------------------------
D-------2-----------2-----------2-----------2---------------------------
A---0-----------------------0-------------------------------------------
D-----------------------------------------------------------------------


e-----------------------------------------------------------------------
B-----------2-----------2-----------2-----------2-----------------------
G-----------------------------------------------------------------------
D-------2-----------2-----------2-----------2---------------------------
A---0-----------------------0-------------------------------------------
D-----------------------------------------------------------------------


e---5-----------5---------------4---5---7---5---------------------------
B-----------2-----------2-----------------------7-----------------------
G-----------------------------------------------------------------------
D-------2-----------2---------------------------------------------------
A---0-----------------------0-------------------------------------------
D-----------------------------------------------------------------------



e---5-----------5---------------4---5---7-----5---0---------------------
B-----------7-----------7-----------------------------------------------
G-------6-----------6---------------------------------------------------
D---4-----------------------4-------------------------------------------
A-----------------------------------------------------------------------
D-----------------------------------------------------------------------


e---2-----------2-----------------------2---0---------------------------
B-----------3-----------3-------3---5-----------------------------------
G-------2-----------2---------------------------7-----------------------
D---0-----------------------0-------------------------------------------
A-----------------------------------------------------------------------
D-----------------------------------------------------------------------


e-----------0-----------0-----------0-----------0-----------------------
B-----------------------------------------------------------------------
G----6-----------------------------------6------------------------------
D-------6-----------6-----------6---------------------------------------
A---4-----------------------4-------------------------------------------
D-----------------------------------------------------------------------


e----0---------------------------0---2---4-------------------------------
B-----------0---0-------2---3-------------------------------------------
G-----------------------------------------------------------------------
D---------------0---4-----------4---------------------------------------
A---2-------2---------------2-------------------------------------------
D-------4---------------------------------------------------------------


e---5---4-------0-------------------------------------------------------
B-----------7-----------------------------------------------------------
G-----------------------------------------------------------------------
D-----------4---7---6---4-----------------------------------------------
A-------4-------------------7-------------------------------------------
D---4-------------------------------------------------------------------


e---------------0-------------------------------------------------------
B---2-------------------------------------------------------------------
G-----------2-----------1-----------1-----------------------------------
D-----------------------------------------------------------------------
A-------------------2-----------2---------------------------------------
D---------------2-------------------------------------------------------





DOWNLOAD THE COMPLETE TAB HERE



  • click 'Free Download'
  • add your e-mail address
  • you will get an e-mail with your download links (in a few seconds)
  • download the Guitar Pro 6 tab + GP5 + PDF for free
  • and that's all ...


Guitar Pro: a complete workshop for guitarists at an affordable price