Showing posts with label 2004. Show all posts
Showing posts with label 2004. Show all posts

20161121

THE SHADOWS SLEEPWALK TAB (LIVE FROM THE FINAL TOUR 2004)

The Shadows - Sleepwalk - live version from The Final Tour (2004)
Probably sounds better than the original record.
Lead guitar line + chords below.



THE SHADOWS SLEEPWALK TAB (LIVE)

GP5 + GP6 + PDF >>

Part 1
                            tremolo
e------------15~---15~--------------------------------------------------
B---------13------------------------------------------------------------
G---12/14----------------12-(11)-(12)~----------------------------------
D-----------------------------------------------------------------------
A-----------------------------------------------------------------------
E-----------------------------------------------------------------------

       tremolo
e-----------------------------------------------------------------------
B---13-(12)-(13)~------8---8~-------------------------------------------
G-----------------------------------------------------------------------
D-----------------------------------------------------------------------
A-----------------------------------------------------------------------
E-----------------------------------------------------------------------

                                   tremolo
e------------------------8~---------------------------------------------
B---6-8-8(9)---(8)---6\5---------8-(7)-(8)~-----------------------------
G-----------------------------------------------------------------------
D-----------------------------------------------------------------------
A-----------------------------------------------------------------------
E-----------------------------------------------------------------------


20150719

ERIC CLAPTON COCAINE TAB (SOLO LIVE AT 2004 CROSSROADS GUITAR FESTIVAL)

Eric Clapton's live Cocaine solo from 2004 Crossroads Guitar Festival.
It starts at 1:14 ... enjoy.
See the TAB under the video.



ERIC CLAPTON COCAINE SOLO TAB

PDF >>

(1:14)

e-----------------------------------------------------------------------
B---17(19)--------------------------------------------------------------
G-----------------------------------------------------------------------
D-----------------------------------------------------------------------
A-----------------------------------------------------------------------
E-----------------------------------------------------------------------


e-----------------------------------------------------------------------
B---17(19)---(17)(19)---17(19)------17.-17~-----------15--15~---h17.----
G-------------------------------------------------------16--------------
D-----------------------------------------------------------------------
A-----------------------------------------------------------------------
E-----------------------------------------------------------------------


e-----------------------------------------------------------------12~---
B------------------12-15-12-----------------------------12-15(17)-------
G-------12-14-(16)----------14(16)-14p12--14--12-14(16)-----------------
D---/14---------------------------------14--14--------------------------
A-----------------------------------------------------------------------
E-----------------------------------------------------------------------