Showing posts with label All Alone With You. Show all posts
Showing posts with label All Alone With You. Show all posts

20171008

EGOIST ALL ALONE WITH YOU TAB (FINGERSTYLE GUITAR COVER)

All Alone With You fingerstyle guitar cover played by heechan.
Original song by EGOIST. Dropped D tuning and CAPO on the 2nd fret.
Download the tab files below.



ALL ALONE WITH YOU FINGERSTYLE TAB

GP5 + GP6 + PDF >>

Part 1

e---5<17>-4<16>---------------------------------------------------------
B---------------5<17>-<12>----------------------------------------------
G----------------------------2<14>---1<13>---2<14>p1<13>----------------
D--------------------------------------------------------2<14>---<12>---
A-----------------------------------------------------------------------
D---0--------------------------------------2----------------------------


e---------0--------------------------<12>-------------------------------
B-------0-----------------------<12>------------------------------------
G---1-2-------------1<13>-2<14>-----------------------------------------
D-----------------------------------------------------------------------
A-----------------------------------------------------------------------
D---4-------------------------------------------------------------------


e-------------------------------------------------0---------------------
B---------------------------------------------0-----------------0-------
G---1-----2---------1-----2-----------------------------------2---2-----
D-----------------------2-----------6---6-7-----------------------------
A---------------------2---------------4---------------------------------
D---0---------------2---------------4-----------------------------------