Showing posts with label Barnatro. Show all posts
Showing posts with label Barnatro. Show all posts

20171031

SVEIN BAKKEN BARNATRO TAB (INSTRUMENTAL GUITAR COVER)


Svein Bakken plays Barnatro (Childhood Faith) - instrumental guitar cover.
Download the tablature below.



SVEIN BAKKEN BARNATRO TAB

GP5 + GP6 + PDF >>

Part 1

e-----------4------3-4---7----------------------------------------------
B-------5-------------------------------5-4--3-------7-5----------------
G---4------------------------4-----------------6-----------6---4--------
D-----------------------------------------------------------------------
A-----------------------------------------------------------------------
E-----------------------------------------------------------------------


e--------------------4--------------------------------------------------
B----------------5-------7--------4---5--5/7----------------------------
G--------4-----4------------6-------------------------------------------
D---6--7----------------------------------------------------------------
A-----------------------------------------------------------------------
E-----------------------------------------------------------------------


e---------------------------7-------------------------------------------
B---------5---5/9-----8-9--------------5-4--3-------7-5-----------------
G---4-4-------------------------4-------------6-----------6---4---------
D-----------------------------------------------------------------------
A-----------------------------------------------------------------------
E-----------------------------------------------------------------------