Showing posts with label Bobby's Girl. Show all posts
Showing posts with label Bobby's Girl. Show all posts

20180106

TONYSHAD BOBBY'S GIRL TAB (SHADOWMAN PLAYS BOBBY'S GIRL)


Tonyshad plays an instrumental guitar cover of Bobby's Girl
White Fender Stratocaster forever !!!
Download the TAB below


TONYSHAD BOBBY'S GIRL TAB

GP5 + GP6 + PDF >>

Part 1

e-----------------------------------------------------------------------
B---------------3---5-3-------------------------------------------------
G-----------4-------------------------------------4---5-4---------------
D-------5-----------------5~------------------5-------------5~----------
A-----------------------------------------7-----------------------------
E-----------------------------------------------------------------------


e-----------------------------------------------------------------------
B---------------5.--3---------------------------------------------------
G-----------5-------------4-----4---2~----------------------------------
D-------5---------------------5-----------------------------------------
A-----------------------------------------------------------------------
E-----------------------------------------------------------------------


e-----------------------------------------------------------------------
B---------------3---5-3-------------------------------------------------
G-----------4-------------------------------------4---5-4---------------
D-------5-----------------5~------------------5-------------5~----------
A---------------------------------------7-------------------------------
E-----------------------------------------------------------------------