Showing posts with label Django Reinhardt. Show all posts
Showing posts with label Django Reinhardt. Show all posts

20171106

DJANGO REINHARDT TEARS TAB (GUITAR COVER BY SAMANTHA WELLS)

Samantha Wells plays Tears by Django Reinhardt
Nice guitar cover in standard tuning
Download the TAB below



DJANGO REINHARDT TEARS TAB

GP5 + GP6 + PDF >>

Part 1

e---------------------------------3---1---------------------------------
B---------1-----------1---------3------------5/6---5--------------------
G---------2-----------2-------2-------------4---------------------------
D-------2-----------2---------------------0-----------------------------
A---0---------0-3---------0-2-------------------------------------------
E---------------------------------------4-------------------------------


e---------------------------------3---1---------------------------------
B---------1-----------1---------3------------5/6---5--------------------
G---------2-----------2-------2-------------4---------------------------
D-------2-----------2---------------------0-----------------------------
A---0---------0-3---------0-2-------------------------------------------
E---------------------------------------4-------------------------------


e-------0-0---0-1-----1-------------------------------------------------
B-------2-2---2-2-----2-----3-------3---------3-------------------------
G-------0-0---0-0-----0-----2---------2-----2---------------------------
D-------2-----------2-------3-----3-------3-----------------------------
A---1-----------1-----------0-------------------------------------------
E---------------------------------------1---------x---------------------