Showing posts with label Famous Flowers of Manhattan. Show all posts
Showing posts with label Famous Flowers of Manhattan. Show all posts

20170923

THE AVETT BROTHERS FAMOUS FLOWERS OF MANHATTAN TAB (COVER BY MATT)

Famous Flowers of Manhattan (The Avett Brothers) cover played by Matt
He uses standard tuning with Capo on the 1st fret. (lyrics included too)
Download the Guitar Pro 6, GP5 and PDF files below.



THE AVETT BROTHERS FAMOUS FLOWERS OF MANHATTAN TAB

GP5 + GP6 + PDF >>

Intro

e-----------------------------------------------------------------------
B---3-------0--------------0--------------------------------------------
G---------------------0-2----2--0-0-------0-----------------------------
D--------0---------0---------0---------0--------------------------------
A-----------------------------------------------------------------------
E---3---------3---------3---------3-------------------------------------


e-----------------------------------------------------------------------
B------0---------0---------0-----------0--------------------------------
G---2----2--0-2----2--0-2----2--0-2-------0-----------------------------
D--------0---------0---------0---------0--------------------------------
A-----------------------------------------------------------------------
E---3---------3---------3---------3-------------------------------------


e-----------------------------------------------------------------------
B-----------1---------1---------1----0----------------------------------
G------0---------0---------0--------------0-----------------------------
D--------2---------2---------2---------2--------------------------------
A---3---------3---------3---------3-------------------------------------
E-----------------------------------------------------------------------