Showing posts with label GARY MOORE. Show all posts
Showing posts with label GARY MOORE. Show all posts

20170508

GARY MOORE THE STUMBLE TAB (GUITAR PRO 6 + GP5 + PDF)


Gary Moore - The Stumble is one of the best blues guitar songs.
Download the Guitar Pro 6 + GP5 and PDF files below.



GARY MOORE THE STUMBLE TAB

GP5 + GP6 + PDF >>

Part 1

e------------------------------12-\--------7-------7--------------------
B------------------------------12-\----8.--10(12)--10(12)--10-8-10-8'---
G--------9-11-9~-------11'-----12-\-/9----------------------------------
D---9h11----------------------------------------------------------------
A-----------------------------------------------------------------------
E-----------------------------------------------------------------------


e-------------------------------7.--------------------------------12-\--
B-------------------------------7.--------------------------------12-\--
G----9----7--7------------------7.---------9-11-9~-------12-\-----12-\--
D-------9------\7--5h6---\------6.----9h11------------------------------
A-----------------------------------------------------------------------
E-----------------------------------------------------------------------


e-----------------------------------------------------------------------
B-----------------------------------------------------------------------
G-----7.--9(11)---9(11)(9)-7---7'---------------------------------------
D---9------------------------9------9--7--------------------------------
A----------------------------------------\7p5---7----5h6----------------
E---------------------------------------------7----7-----7-7~-----------


20130105

GARY MOORE STILL GOT THE BLUES TAB (SOLO)


Carl Brown's lesson how to play the solo parts of Still Got The Blues by Gary Moore.
TAB helps below. Check out Carl Brown's website here:



GARY MOORE STILL GOT THE BLUES SOLO TAB

PDF >>

Intro

e-----------------------------------------------------------------------
B----15-17-17(18)---------17(18)---17---15~-----------------------------
G-14--------------------------------------------------------------------
D-----------------------------------------------------------------------
A-----------------------------------------------------------------------
E-----------------------------------------------------------------------


e-----------------------------------------------------------------------
B-13-15-15(17)------------15(17)(15)---13~------------------------------
G-----------------------------------------------------------------------
D-----------------------------------------------------------------------
A-----------------------------------------------------------------------
E-----------------------------------------------------------------------


e-----------------------------------------------------------------------
B-10-12-13-13(15)---------13(15)(13)---12------------10-----------------
G---------------------------------------------------------12--12(14)----
D-----------------------------------------------------------------------
A-----------------------------------------------------------------------
E-----------------------------------------------------------------------