Showing posts with label HOTEL CALIFORNIA. Show all posts
Showing posts with label HOTEL CALIFORNIA. Show all posts

20170701

ACOUSTICIAN HOTEL CALIFORNIA SOLO TAB (THE EAGLES)


The Eagles - Hotel California solo part played on acoustic guitar by Acoustician.
His name is Juha Järvinen and he adds a nice improvisation at the end (~ 2:14)
Download the Guitar Pro 6 and PDF tab below.



ACOUSTICIAN HOTEL CALIFORNIA SOLO TAB

GP5 + GP6 + PDF >>

e-----------------------------------------------------------------------
B----------10h12/15~-------10h12-------------7--------------------------
G---6/11------------------------11\9~----7h9---7------------------------
D------------------------------------------------9-8~-------------------
A-----------------------------------------------------------------------
E-----------------------------------------------------------------------


e-----------------------------------------------------------------------
B-----------------------------------------------------------------------
G-----------------------------------------------------------------------
D---9-h12p9-7--/8~------------------------------------------------------
A-----------------------------------------------------------------------
E-----------------------------------------------------------------------


e-----------------------------------------10----------------------------
B-------7---------------7-----------10/12----12\10~--7-10-9~------------
G---7h9---7---------7h9---7-------7-------------------------------------
D-----------9-8-9~----------9-8-9---------------------------------------
A-----------------------------------------------------------------------
E-----------------------------------------------------------------------


20160814

THE EAGLES HOTEL CALIFORNIA TAB (INSTRUMENTAL GUITAR DUET)

Nice and easy guitar cover played by a duet from Estonia. The uploader is crea1337.
The song is Hotel California by The Eagles.
See the TAB under the video.



THE EAGLES HOTEL CALIFORNIA INSTRUMENTAL TAB

PDF >>

Intro


G1
e-----------------------------------------------------------------------
B---------------------------5--7.-7h8p7p5-5h7~--------------------------
G------4--4h6p4p3--4--6--7----------------------------------------------
D-----------------------------------------------------------------------
A-----------------------------------------------------------------------
E-----------------------------------------------------------------------

G2 (Capo on 7th)
e---2-------------------------------------------------------------------
B---0-------------------------------------------------------------------
G---0-------------------------------------------------------------------
D---2-------------------------------------------------------------------
A---2-------------------------------------------------------------------
E---0-------------------------------------------------------------------



G1
e-----------------------------------------------------------------------
B------------3--2-------------------------------------------------------
G------2--4-----------2--2h4--2-----------------------------------------
D------------------4-------------4\2-0h2~-------------------------------
A-----------------------------------------------------------------------
E-----------------------------------------------------------------------

G2 (Capo on 7th)
e---0-------------------------------------------------------------------
B---3-------------------------------------------------------------------
G---2-------------------------------------------------------------------
D---4-------------------------------------------------------------------
A---0-------------------------------------------------------------------
E-----------------------------------------------------------------------


20141118

DAVID WAYNE HOTEL CALIFORNIA TAB (ACOUSTIC GUITAR COVER)

David Wayne plays a cool live acoustic guitar cover of Hotel California (The Eagles).
He plays the song in the original key.
See the TAB under the video.



DAVID WAYNE HOTEL CALIFORNIA TAB

GP5 + GP6 + PDF >>

Intro

e-777---------------7-----------------6---------9p6---6-----------------
B-777---------7---------------------------7-----------------------------
G-777---7-------7-----------7---7h9---------6---------------------------
D-999-----9---------------9-------------------8-----8-------------------
A-999-------9-----9-----------------------------------------------------
E-777-------------------7-----------------------------------------------


e-5---5-----7p5---5-------------------------------7---------------------
B-5-----5-------------5---------------------7---------------------------
G-6---------------------6-----6-------7-------7-------------------------
D-7-------7-----7---------------0-------6-------------------------------
A-------------------------7-------7-------7-----7-----------------------
E-----------------------------------------------------------------------


e--7-7-7----------------7-------------------10--------------------------
B--8-8-8----------8---------8-----------------7---7---------7-------7---
G--7-7-7---7--------7---------7-----7.--------------7---------7-------7-
D--9-9-9-----9------------------7h9-----7-------7-----7-7---------------
A-101010-------10----10-----------------------------------------9-------
E-----------------------------------------------------------------------



20131113

HOTEL CALIFORNIA ACOUSTIC TAB (INTRO COVER BY ALI STEAD)

Alicia Stead plays a nice Hotel California intro with a Carparelli Spirit of 69 guitar.
Creative and soft playing by a very nice lady.
TAB under the video.


HOTEL CALIFORNIA ACOUSTIC TAB

PDF >>

e-9---------------------------------------------------------------------
B-7------------------------2-3-5-7---7h8p7p5-5/7------------------------
G-7--------4-4h6p4p3-4--------------------------------------------------
D-7---------------------------------------------------------------------
A-9---------------------------------------------------------------------
E-7---------------------------------------------------------------------


e-----------------------------------------------------------------------
B-10-----------3-2.-----------------------------------------------------
G--9-------2-4--------2--2/4---2----------------------------------------
D-11-------------------------------4\2----------------------------------
A-12-------------------------------------2/7~---------------------------
E-----------------------------------------------------------------------


e-0--------------0-------0-------0-------0-------7p0-----10p0-----------
B-0------------0-------0-------0-------0-------8-------8----------------
G-0----------0-------2-------4-------7-------9-------9------------------
D-2--------2-------4-------5-------9------------------------------------
A-2---------------------------------------------------------------------
E-0---------------------------------------------------------------------


20121213

THE EAGLES HOTEL CALIFORNIA TAB (INTRO)


Tripfuse shows us clearly how to play the original intro of Hotel California.
You'll need strong fingers because there are some difficult chords. TAB helps below.



HOTEL CALIFORNIA INTRO TAB

PDF >>

e-7---------------7-------------------------9---------------------------
B-7---------7---------------------------7-------7-----------------------
G-7-----7-------7---------7---9-------9---9---9-------------------------
D-9---9---9---9-------9-----------8---------------8---------------------
A-----------------------------------------------------------------------
E-----------------------------------------------------------------------


e------------7------------------------------------------7---------------
B-------10-------10-------10-------10-------------7---------------------
G-----9----9---9--------9--------9------------7-------7-----------------
D-7-----------------7-----------------------9---9---9-------------------
A----------------------------7---------11-------------------------------
E-----------------------------------------------------------------------


e------------------7-------------------10-----10---------10-------------
B------------8----------------------------7------7----------7------7----
G--------7-------7-------------7.-----------7------7-------------7------
D------9---9---9-----------7h9-----7------------------------------------
A-10-------------------------------------------------9------------------
E-------------------------------------------------------------10--------


20121130

THE EAGLES HOTEL CALIFORNIA SOLO TAB (COVER BY SEAN BOOTHE)

Hotel California guitar solo cover played by Sean Boothe. 2 lead guitar lines.
#1 a Gibson Les Paul and #2 a Fender Stratocaster.
Original song by The Eagles. Download the GP5, GP6 and PDF files below.



THE EAGLES HOTEL CALIFORNIA SOLO TAB

GP5 + GP6 + PDF >>

e-----------------------------------------------------------------------
B--------10h12(15)~~----10-12-------------7----------0-h3p0-------------
G--/11-----------------------11\9~~---7h9---7'-------------2(3)~~~------
D---------------------------------------------8~------------------------
A-----------------------------------------------------------------------
E-----------------------------------------------------------------------


e-------------------------------------------10--------------------------
B-------7---------------7-----------10(12)-----(12)(10)p7-10-8(9)~------
G---7-9---7'--------7-9---7---------------------------------------------
D-----------9p8-9~----------9p7-9p7-------------------------------------
A-----------------------------------------------------------------------
E-----------------------------------------------------------------------


e---7---10(12)------10.--(12)(10)-7--------10---------------------------
B-----7-----------------------------10(12)----(12)(10)-8~---------------
G-----------------------------------------------------------------------
D-----------------------------------------------------------------------
A-----------------------------------------------------------------------
E-----------------------------------------------------------------------