Showing posts with label How Deep Is Your Love. Show all posts
Showing posts with label How Deep Is Your Love. Show all posts

20170807

BEE GEES HOW DEEP IS YOUR LOVE TAB (FINGERSTYLE GUITAR COVER BY GIAN PIERO FERRINI)

Gian Piero Ferrini plays a great fingerstyle guitar cover of How Deep Is Your Love.
Dropped D tuning with CAPO on the 2nd fret. (original song by Bee Gees)
Download the Guitar Pro 6 and PDF files below.



GIAN PIERO FERRINI HOW DEEP IS YOUR LOVE TAB

GP6 + PDF >>

Intro

e-----------------------------------------------------------------------
B-----------------------0-------------------------------0---------------
G-----------0--h2---------------0---------------2---------------0-------
D-------0-----------0-------0-----------0--h4-------4-------4-----------
A-----------------------------------------------------------------------
D---5-------------------------------5-----------------------------------


e-----------------------------------------------------------------------
B---------------0-------------------0h1-----------------1---------------
G-----------0-----------0-------0---0-----------0-----------------0-----
D-------2-----------2-------2-------2-------2-------2-------0h2---------
A---3-------------------------------0-----------------------------------
D-----------------------------------------------------------------------


e-----------------------------------------------------------------------
B-----------------------0-------------------------------0---------------
G-----------0--h2---------------0---------------2---------------0-------
D-------0-----------0-------0-----------0--h4-------4-------4-----------
A-----------------------------------------------------------------------
D---5-------------------------------5-----------------------------------