Showing posts with label Johnny Rivers. Show all posts
Showing posts with label Johnny Rivers. Show all posts

20170901

JOHNNY RIVERS ROCKIN PNEUMONIA TAB (GUITAR SOLO)


Michael Gregory plays a great cover Rockin Pneumonia guitar solo.
Originally the solo is played by Dean Parks from Johnny Rivers' band.
Download the TAB in Guitar Pro 6 and in PDF.



JOHNNY RIVERS ROCKIN PNEUMONIA SOLO TAB

GP5 + GP6 + PDF >>

e----------8------------------------------------------------------------
B-------------11(13)~~~-------------------------------------------------
G------/9---------------------------------------------------------------
D-----------------------------------------------------------------------
A-----------------------------------------------------------------------
E-----------------------------------------------------------------------


e-----------------------------------------------------------------------
B---8(10).--8.--8.--(10).--8.--8~---------------------------------------
G---------------------------------------7(9).--(9)(7)-p5----------------
D---------------------------------------------------------5~------------
A-----------------------------------------------------------------------
E-----------------------------------------------------------------------


e-----------------------------------------------------------------------
B-----------------------------------------------------------------------
G--------5.--5--------7(9)-----(7)--7.----------------------------------
D---5/7---------5--5----------------------------------------------------
A-----------------------------------------------------------------------
E-----------------------------------------------------------------------