Showing posts with label Kalei Gamiao. Show all posts
Showing posts with label Kalei Gamiao. Show all posts

20170721

KALEI GAMIAO SILENT NIGHT TAB (UKULELE COVER)


Kalei Gamiao plays a fantastic instrumental ukulele cover of Silent Night.
Download the Guitar Pro 6 + GP5 and PDF files below.
Part 2 starts about 1:07 in the video.



KALEI GAMIAO SILENT NIGHT UKULELE TAB

GP5 + GP6 + PDF >>

Part 2

A-------------------<12>------------------------------------------------
E---3<15>------------------3<15>-------<12>-----------0-----------------
C---------------0---------------------------------0---------------------
G-----------0----------------------0----------0-----------0---0---------


A-------------------<12>--------------------------------------5---------
E---3<15>------------------3<15>-------<12>-----------0-----------------
C---------------0---------------------------------0---------------------
G-----------0----------------------0----------0-----------0-------------


A---5---------------5-------2---------------0---2/3---------------------
E---------------3-----------1-----------1-------------------------------
C-----------5---------------2-------2-----------------------------------
G-------0---------------0---0---0---------------------------------------


A---3---------------3---------------------------------------------------
E-----------0---------------3-----------3-------------------------------
C-----------------------------------0-----------------------------------
G-------0-------0-------0-------0-----------0---0-----------------------