Showing posts with label Lagrimas. Show all posts
Showing posts with label Lagrimas. Show all posts

20171019

THE ELECTROMANIACS LAGRIMAS TAB (GUITAR PRO 6 + PDF)


The Electromaniacs - Lagrimas vintage instrumental guitar song.
Download the TAB below.



THE ELECTROMANIACS LAGRIMAS TAB

GP6 + PDF >>

Part 1

e-----------------------------------------------------------------------
B-----------------------------------------------------------------------
G-------------5-------4-------2---------------5-------4-------2---------
D---2-4-6-7-7---7-5-5---5-3-3---2---2-4-6-7-7---7-5-5---5-3-3---2-------
A-----------------------------------------------------------------------
E-----------------------------------------------------------------------
    x x x x x x x x x x x x x x x   x x x x x x x x x x x x x x x 


e--------12--12--12.--10--10h12--10--10h12p10--8~-----------------------
B---5-/--13------13.--12--12-----12--12-------10~-----------------------
G-----------------------------------------------------------------------
D-----------------------------------------------------------------------
A-----------------------------------------------------------------------
E-----------------------------------------------------------------------


e--------12--12--12--10--10h12--10--10h12p10--8~------------------------
B---5-/--13------13--12--12-----12--12-------10~------------------------
G-----------------------------------------------------------------------
D-----------------------------------------------------------------------
A-----------------------------------------------------------------------
E-----------------------------------------------------------------------