Showing posts with label Mas Que Un Deseo. Show all posts
Showing posts with label Mas Que Un Deseo. Show all posts

20171212

LAS PELOTAS MAS QUE UN DESEO TAB (GERMAN Y GABI EN MTQN)

German y Gabi de Las Pelotas play Mas Que Un Deseo live at MTQN.
One single acoustic guitar with Capo on the 1st fret.
Download the TAB below.



LAS PELOTAS MAS QUE UN DESEO TAB

GP5 + GP6 + PDF >>

 - CAPO on the 1st -
Intro

e-----------------------------------------------------------------------
B-----------0-----------3-----------0-----------0-----------------------
G-------0-----0-----0-----0-----0-----0-----0-----0---------------------
D-----4---4-------4---4-------4---4-------4---4-------------------------
A---2-----------2-----------2-----------2-------------------------------
E-----------------------------------------------------------------------


e-----------0-----------------------0-----------------------------------
B-------3-----3-----------------3-----3---------------------------------
G-----2---2-------0---0---0---2---2-------0---0---0---------------------
D---0-----------0---2---4---0-----------0---2---4-----------------------
A-----------------------------------------------------------------------
E-----------------------------------------------------------------------



Verse

e-----------------------------------------------------------------------
B-----------0-----------3-----------0-----------0-----------------------
G-------0-----0-----0-----0-----0-----0-----0-----0---------------------
D-----4---4-------4---4-------4---4-------4---4-------------------------
A---2-----------2-----------2-----------2-------------------------------
E-----------------------------------------------------------------------