Showing posts with label PAUL GILBERT. Show all posts
Showing posts with label PAUL GILBERT. Show all posts

20121202

PAUL GILBERT SPEED PICKING GUITAR LESSON TAB



Paul Gilbert gives you some pieces of advice about speed picking.
He plays a bit fast, so there is a TAB below that will help you out.


 
SPEED PICKING TAB BY PAUL GILBERT


e----------18-22-18-20-22--20-18-17-18-20-18-17-------------------------
B-18-20-22--------------------------------------20--18-16-15------------
G-----------------------------------------------------------------------
D-----------------------------------------------------------------------
A-----------------------------------------------------------------------
E-----------------------------------------------------------------------


e----------15-18-15-17-18--17-15-13-15-17-15-13-------------------------
B-15-16-18--------------------------------------16--15-13-11------------
G-----------------------------------------------------------------------
D-----------------------------------------------------------------------
A-----------------------------------------------------------------------
E-----------------------------------------------------------------------


e----------11-15-11-13-15--13-11-10-11-13-11-10-------------------------
B-11-13-15--------------------------------------13--11-10-8-------------
G-----------------------------------------------------------------------
D-----------------------------------------------------------------------
A-----------------------------------------------------------------------
E-----------------------------------------------------------------------