Showing posts with label Rain. Show all posts
Showing posts with label Rain. Show all posts

20170124

MICHAEL MUCKLOW RAIN TAB (RELAXING ACOUSTIC GUITAR SONG)


Michael Mucklow - Rain - relaxing acoustic guitar song.
From the album - Silent Voices.
See the TAB under the video.


MICHAEL MUCKLOW RAIN TAB

GP5 + GP6 + PDF >>

Part 1

e------------------0--------------------0-------------------------------
B------------0--------0--------0-----------0----------------------------
G---------6--------------6--------6-----------6-------------------------
D------6--------6--------------------6-----------6----------------------
A---4-----------------------4-------------------------------------------
E-----------------------------------------------------------------------


e------------------------0----------------------------------------------
B---5-/7-----------7-----------7--------7-p0-h4-p0----------------------
G------------8--------------------8-------------------------------------
D-----------------------------------------------------------------------
A---------9-----9-----9-----9--------9----------------------------------
E---0-------------------------------------------------------------------


e------------------0--------------------0-------------------------------
B------------0--------0--------0-----------0----------------------------
G---------6--------------6--------6-----------6-------------------------
D------6--------6--------------------6-----------6----------------------
A---4-----------------------4-------------------------------------------
E-----------------------------------------------------------------------