Showing posts with label San Antonio Rose. Show all posts
Showing posts with label San Antonio Rose. Show all posts

20170712

THE VENTURES SAN ANTONIO ROSE TAB (GP5 + GP6 + PDF)


The Ventures play San Antonio Rose.
Amazing instrumental lead guitar playing.
Download the TAB below.



THE VENTURES SAN ANTONIO ROSE TAB

GP5 + GP6 + PDF >>

Part 1

e-----0---0-1-0-----------------------------------0-------0-------------
B-------4-------3-1p0-----------------------0-------0-------0.----------
G---------------------2-1-------------------1-------2-------1.----------
D-------------------------3-2-0-------------2-------3-------2.----------
A-------------------------------3-2---------2-------3-------2.----------
E-----------------------------------0.----------------------------------


Part 2

e-------5.--7/9---------5.----------------------------------------------
B---5.----------------------5------------5---------5-7.--3p2p1p0--------
G-----------------------------------/6-------7---7----------------------
D-----------------------------------------------------------------------
A-----------------------------------------------------------------------
E-----------------------------------------------------------------------


e------------------0---------------------------5------------------------
B---9----------7---x-------7---5-----------5----------------------------
G---7----------7---7---------------6---------------6--------------------
D---9-------------------------------------------------------------------
A-----------------------------------------------------------------------
E-----------------------------------------------------------------------