Showing posts with label Stevie Ray Vaughan. Show all posts
Showing posts with label Stevie Ray Vaughan. Show all posts

20171218

STEVIE RAY VAUGHAN LOOKIN' OUT THE WINDOW TAB (GUITAR SOLO, LIVE AT DAYTONA BEACH 1987)

Stevie Ray Vaughan - Lookin' Out The Window guitar solo
This solo is taken from a live version - 1987 Daytona Beach
It starts about 1:58 and goes until 3:19 in this video
Download the TAB below


STEVIE RAY VAUGHAN LOOKIN' OUT THE WINDOW SOLO TAB (LIVE)

GP5 + GP6 + PDF >>

Solo (1:58 - 3:19)

eb---------------------------------------------5------------------------
Bb---------------------------------------5---7-----x--------------------
Gb-------2-2---2-----2-----------2---2----------------------------------
Db---------------5'-----------------------------------------------------
Ab---0-----------------5'--4-0-----0---0--------------------------------
Eb----------------------------------------------------------------------


eb---8(10)-----8(10)---8-5---8-5-----5---5------------------------------
Bb---x-----------------------------5------------------------------------
Gb-----------------------------------------7(9)---7-5~------------------
Db----------------------------------------------------------------------
Ab----------------------------------------------------------------------
Eb----------------------------------------------------------------------


eb------------------5---5----5----------5-------------------------------
Bb---7p5----------5---5---8'---5------5---8------8----------------------
Gb---7p5-----7(9)----------------7(9)-------7(9)---(9)(7)-5~----7p5-----
Db-------7-5--------------------------------------------------------7-5-
Ab----------------------------------------------------------------------
Eb----------------------------------------------------------------------
         x x