Showing posts with label THE ROLLING STONES. Show all posts
Showing posts with label THE ROLLING STONES. Show all posts

20160501

THE ROLLING STONES UNDER MY THUMB TAB (GUITAR COVER BY HAPPYHOTSTAR)

Under My Thumb by The Rolling Stones from Get Yer Ya Ya's album.
Great lead guitar cover played by Happyhotstar.
See the TAB under the video.



THE ROLLING STONES UNDER MY THUMB TAB

GP5 + GP6 + PDF >> 

Part 1

e-----------------------------------------------------------------------
B-----------------------------------------------------------------------
G---------6-------------------------------------------------------------
D-----7-9--------------6-7-9------------4-5-7------------4-5-7----------
A---9-------9.--9.--/7-------7.--7\--/5-------5.--5\--/5-------5.--5.---
E-----------------------------------------------------------------------


e-----------------------------------------------------------------------
B-----------------------------------------------------------------------
G---------6-------------------------------------------------------------
D-----7-9--------------6-7-9------------4-5-7------------4-5-7----------
A--/9-------9.--9\--/7-------7.--7\--/5-------5.--5\--/5-------5.--5.---
E-----------------------------------------------------------------------


e-----------------------------------------------------------------------
B-----------------------------------------------------------------------
G---------6-------------------------------------------------------------
D-----7-9--------------6-7-9-----------4-5-7-----------4-5-7------------
A--/9-------9.--9\--/7-------7.--7\--5-------5.--5.--5-------5.--5.-----
E-----------------------------------------------------------------------


20160320

THE ROLLING STONES STAR STAR TAB (GUITAR SOLO)

There is a great rock and roll guitar solo in Star Star by The Rolling Stones.
It starts about 2:08 on this record and finishes about 2:38.
See the solo TAB under the video.



THE ROLLING STONES STAR STAR TAB (GUITAR SOLO)

GP5 + GP6 + PDF >>

                F
e-----------------------------------------------------------------------
B-----------------------------------------------------------------------
G---12(14)---12(14)---(12)---10------12(14)-12(14)-12(14)(12)-10--------
D---------------------------------------------------------------12------
A-----------------------------------------------------------------------
E-----------------------------------------------------------------------

       C                                                   F
e-----------------------------------------------------------------------
B---13-----------------------13-----------------------------------------
G--------12(14)---(12)-10--10-----12(14)---(12)-10--10-12-(14)(12)------
D------------------------12-----------------------12--------------------
A-----------------------------------------------------------------------
E-----------------------------------------------------------------------

                                          C
e-----------------------------------------------------------------------
B-------------------------13(15)(13)-10---------------------------------
G---10-----12(14)(12)-10---------------12(14)---(12)-10--10-------------
D--------12-------------12-----------------------------12---------------
A-----------------------------------------------------------------------
E-----------------------------------------------------------------------


THE ROLLING STONES DON'T STOP TAB (SOLO)


Short video how to play the guitar solo of Don't Stop by the Rolling Stones.
Not sure but it might be Ronnie who plays it on the original record.
See the TAB under the video.



THE ROLLING STONES DON'T STOP SOLO TAB

PDF >>


e-----------------------------------------------------------------------
B-----------------------------------------------------------------------
G--------9---9h11.----9h11.----11p9------9h11p9-------------------------
D---9h11----------------------------11-9--------11-9--------------------
A-----------------------------------------------------------------------
E-----------------------------------------------------------------------


e-----------------------------------------------------------------------
B-----------------------------------------------------------------------
G----9------------------------------------------------------------------
D---x----11-9\7---9.----7h9.----9p7---7-9/11-9p7------------------------
A-----------------------------------9------------7--/-9-----------------
E-----------------------------------------------------------------------


e-----------------------------------------------------------------------
B-----------------------------------------------------------------------
G--------9---9h11.----9h11.----11p9------9h11p9-------------------------
D---9h11----------------------------11-9--------11-9--------------------
A-----------------------------------------------------------------------
E-----------------------------------------------------------------------



20121217

THE ROLLING STONES HONKY TONK WOMAN TAB (SOLO)

JeanGuitar78 plays a guitar cover of Honky Tonk Woman by The Rolling Stones.
His Fender Telecaster sounds awesome. He plays a cool improvisation solo in the middle of the video. See the TAB of that particular solo.

(However the song is played in open G tuning, the solo works in standard tuning too)


HONKY TONK WOMAN SOLO TAB


e-----------------------------------------------------------------------
B-----------------------------------------------------------------------
G-12---------14(16).-14(16)(14)p12----12--------------------------------
D---------14----------------------14.-----------------------------------
A-----------------------------------------------------------------------
E-----------------------------------------------------------------------


e-----------------------------------------------------------------------
B-----------------------------------------------------------------------
G------12.--12h14p12-----12----12---------14.--14-12--------------------
D-14----------------14------14------------------------------------------
A-----------------------------------------------------------------------
E-----------------------------------------------------------------------


e-----------------------------------------------------------------------
B-----------------------------------------------------------------------
G-------12.--14.--14(16)(14)-12------12-14-\---7-9(11)(9)-7---7-9-7-----
D-12h14---------------------------14------------------------9-----------
A-----------------------------------------------------------------------
E-----------------------------------------------------------------------