Showing posts with label The Heights. Show all posts
Showing posts with label The Heights. Show all posts

20170717

THE HEIGHTS HOW DO YOU TALK TO AN ANGEL TAB (GUITAR SOLO)


The guitar solo starts between 2:17 and 2:40 in How Do You Talk To An Angel.
Download the Guitar Pro 6 tab and the PDF file below.



THE HEIGHTS HOW DO YOU TALK TO AN ANGEL SOLO TAB

GP5 + GP6 + PDF >>

2:17 - 2:40

e------------17-19(21)-------(21)(19)--p17-19--(21)-19~~~---------------
B----------17-----------------------------------------------------------
G-------/18-------------------------------------------------------------
D-----------------------------------------------------------------------
A-----------------------------------------------------------------------
E-----------------------------------------------------------------------


e--------21.-22.-22(24)----22(24)----22(24)~~~--------------------------
B---17------------------------------------------------------------------
G-----------------------------------------------------------------------
D-----------------------------------------------------------------------
A-----------------------------------------------------------------------
E-----------------------------------------------------------------------


e---22--21--19--21(22)---(21)-19--\17-19(21)----(19)~--\----------------
B-----------------------------------------------------------------------
G-----------------------------------------------------------------------
D-----------------------------------------------------------------------
A-----------------------------------------------------------------------
E-----------------------------------------------------------------------