Showing posts with label The Square. Show all posts
Showing posts with label The Square. Show all posts

20170623

THE SQUARE TRAVELERS TAB (GUITAR SOLO PARTS)


The Square (T-Square) - Travelers guitar solo cover. Solo 1 and Solo 2.
In the original song you can find these parts at 0:19 and 2:17.
Download the Guitar Pro 6, GP5 and PDF files below.



THE SQUARE TRAVELERS SOLO TAB

GP5 + GP6 + PDF >>

Solo 1   (0:19 - 1:27)

e-----------------------------8.--8h10----------------------------------
B---/10-----------8-10.--11.-------------10~----------------------------
G-----------------------------------------------------------------------
D-----------------------------------------------------------------------
A-----------------------------------------------------------------------
E-----------------------------------------------------------------------


e-----------------------------8.--8h10----------------------------------
B---/10-----------8-10.--11.-------------10~----------------------------
G-----------------------------------------------------------------------
D-----------------------------------------------------------------------
A-----------------------------------------------------------------------
E-----------------------------------------------------------------------


e-----------------------------8.--8h10----------------------------------
B---/10-----------8-10.--11.-------------10~----------------------------
G-----------------------------------------------------------------------
D-----------------------------------------------------------------------
A-----------------------------------------------------------------------
E-----------------------------------------------------------------------