Showing posts with label The Stumble. Show all posts
Showing posts with label The Stumble. Show all posts

20170508

GARY MOORE THE STUMBLE TAB (GUITAR PRO 6 + GP5 + PDF)


Gary Moore - The Stumble is one of the best blues guitar songs.
Download the Guitar Pro 6 + GP5 and PDF files below.



GARY MOORE THE STUMBLE TAB

GP5 + GP6 + PDF >>

Part 1

e------------------------------12-\--------7-------7--------------------
B------------------------------12-\----8.--10(12)--10(12)--10-8-10-8'---
G--------9-11-9~-------11'-----12-\-/9----------------------------------
D---9h11----------------------------------------------------------------
A-----------------------------------------------------------------------
E-----------------------------------------------------------------------


e-------------------------------7.--------------------------------12-\--
B-------------------------------7.--------------------------------12-\--
G----9----7--7------------------7.---------9-11-9~-------12-\-----12-\--
D-------9------\7--5h6---\------6.----9h11------------------------------
A-----------------------------------------------------------------------
E-----------------------------------------------------------------------


e-----------------------------------------------------------------------
B-----------------------------------------------------------------------
G-----7.--9(11)---9(11)(9)-7---7'---------------------------------------
D---9------------------------9------9--7--------------------------------
A----------------------------------------\7p5---7----5h6----------------
E---------------------------------------------7----7-----7-7~-----------