Showing posts with label Velvet Revolver. Show all posts
Showing posts with label Velvet Revolver. Show all posts

20170917

VELVET REVOLVER WISH YOU WERE HERE TAB (LIVE INTRO SOLO BY SLASH)

Velvet Revolver - Wish You Were Here live version with a great Slash intro.
The intro solo is about 0:23 - 1:39 played on a double guitar.
Half step-down tuning.



VELVET REVOLVER WISH YOU WERE HERE TAB (INTRO SOLO)

PDF >>

 0:23 - 1:39

eb---10------10------10------10--------------10------10-----------------
Bb---10h12---10h12---10h12---10h12-----------10h12---10h12---10---------
Gb----------------------------------------------------------------------
Db----------------------------------------------------------------------
Ab----------------------------------------------------------------------
Eb----------------------------------------------------------------------


eb----------------------------------------------------------------------
Bb---10.--10--------10--------------------------------------------------
Gb---9.---9h11---11-----------------------------------------------------
Db-------------0--------------------------------------------------------
Ab----------------------------------------------------------------------
Eb----------------------------------------------------------------------


eb-------10------10-----------------------------------------------------
Bb-------10h12---10h12---10---10-------10---10---\----------------------
Gb-----------------------9----9h11-----9h11-9----\----------------------
Db---0------------------------------------------------------------------
Ab----------------------------------------------------------------------
Eb----------------------------------------------------------------------