Showing posts with label acoustic. Show all posts
Showing posts with label acoustic. Show all posts

20171212

LAS PELOTAS MAS QUE UN DESEO TAB (GERMAN Y GABI EN MTQN)

German y Gabi de Las Pelotas play Mas Que Un Deseo live at MTQN.
One single acoustic guitar with Capo on the 1st fret.
Download the TAB below.



LAS PELOTAS MAS QUE UN DESEO TAB

GP5 + GP6 + PDF >>

 - CAPO on the 1st -
Intro

e-----------------------------------------------------------------------
B-----------0-----------3-----------0-----------0-----------------------
G-------0-----0-----0-----0-----0-----0-----0-----0---------------------
D-----4---4-------4---4-------4---4-------4---4-------------------------
A---2-----------2-----------2-----------2-------------------------------
E-----------------------------------------------------------------------


e-----------0-----------------------0-----------------------------------
B-------3-----3-----------------3-----3---------------------------------
G-----2---2-------0---0---0---2---2-------0---0---0---------------------
D---0-----------0---2---4---0-----------0---2---4-----------------------
A-----------------------------------------------------------------------
E-----------------------------------------------------------------------



Verse

e-----------------------------------------------------------------------
B-----------0-----------3-----------0-----------0-----------------------
G-------0-----0-----0-----0-----0-----0-----0-----0---------------------
D-----4---4-------4---4-------4---4-------4---4-------------------------
A---2-----------2-----------2-----------2-------------------------------
E-----------------------------------------------------------------------


20171120

LA PALOMA BLANCA TAB (CLASSICAL GUITAR COVER)


La Paloma Blanca classical guitar cover
Download the TAB below



LA PALOMA BLANCA TAB

GP5 + GP6 + PDF >>

Part 1

e---5-------5-------5-5-----5-------4-------4-------4-4-----4-----------
B---5-----5-----5---5-----5-5---5---5-----5-5---5---5-----5-5---5-------
G---6---------------6-----6-6---6---4-----4-4---4---4-----4-4---4-------
D-----------------------------------------------------------------------
A-----------------------------------------------------------------------
E---5---------------5---------------0---------------0-------------------


e---5-------5-------5-5-----5-------4-------4-------4-4-----4-----------
B---5-----5-5---5---5-5---5-5---5---5-----5-5---5---5-5---5-5---5-------
G---6-----6-6---6---6-6---6-6---6---4-----4-4---4---4-4---4-4---4-------
D-----------------------------------------------------------------------
A-----------------------------------------------------------------------
E---5---------------5---------------0---------------0-------------------


e---5-------x---0---0-----------------------0---2-----------------------
B---5-------x---------------2---------2--/3-----------------------------
G---6-------x-----------------------------------------------------------
D-------------------------2---------------------------------------------
A-------------------0---------------0-----------------------------------
E---5-------x-------------------0---------------------------------------


20171115

PAULINHO MOSKA NOS BRACOS DE ISABEL TAB


Very nice bossa nova guitar playing in Nos Bracos De Isabel (Paulinho Moska)
Download the TAB below



PAULINHO MOSKA NOS BRACOS DE ISABEL TAB

GP5 + GP6 + PDF >>

Intro

e-----------------------------------------------------------------------
B---6---6-----6-----6---6-----6-----4---4-----4-----6---6-----6---------
G---7---7-----7-----7---7-----7-----5---5-----5-----7---7-----7---------
D---5---5-----5-----5---5-----5-----6---6-----6-----6---6-----6---------
A---6-------6-----6-6-------6-----x-------------------------------------
E-----------------------------------6-------6-----x-6-------6-----x-----


e-----------------------------------------------------------------------
B---6---6-----6-----6---6-----6-----4---4-----4-----6---6-----6---------
G---7---7-----7-----7---7-----7-----5---5-----5-----7---7-----7---------
D---5---5-----5-----5---5-----5-----6---6-----6-----6---6-----6---------
A---6-------6-----6-6-------6-----x-------------------------------------
E-----------------------------------6-------6-----x-6-------6-----x-----


Verse

e-----------------------------------------------------------------------
B---8---8-----8-----4---4-----4-----3---3-----3-----2---2-----2---------
G---7---7-----7-----4---4-----4-----3---3-----3-----3---3-----3---------
D---8---8-----8-----3---3-----3-----1---1-----1-----2---2-----2---------
A---6-------------------------------3-------3-----3-3-------3-----x-----
E-----------6-----x-3-------3-----3-------------------------------------


20171106

DJANGO REINHARDT TEARS TAB (GUITAR COVER BY SAMANTHA WELLS)

Samantha Wells plays Tears by Django Reinhardt
Nice guitar cover in standard tuning
Download the TAB below



DJANGO REINHARDT TEARS TAB

GP5 + GP6 + PDF >>

Part 1

e---------------------------------3---1---------------------------------
B---------1-----------1---------3------------5/6---5--------------------
G---------2-----------2-------2-------------4---------------------------
D-------2-----------2---------------------0-----------------------------
A---0---------0-3---------0-2-------------------------------------------
E---------------------------------------4-------------------------------


e---------------------------------3---1---------------------------------
B---------1-----------1---------3------------5/6---5--------------------
G---------2-----------2-------2-------------4---------------------------
D-------2-----------2---------------------0-----------------------------
A---0---------0-3---------0-2-------------------------------------------
E---------------------------------------4-------------------------------


e-------0-0---0-1-----1-------------------------------------------------
B-------2-2---2-2-----2-----3-------3---------3-------------------------
G-------0-0---0-0-----0-----2---------2-----2---------------------------
D-------2-----------2-------3-----3-------3-----------------------------
A---1-----------1-----------0-------------------------------------------
E---------------------------------------1---------x---------------------

20171014

DOLLY PARTON DO I EVER CROSS YOUR MIND TAB (COVER BY LINDSAY STRAW)

Dolly Parton - Do I Ever Cross Your Mind acoustic guitar cover by Lindsay Straw.
Capo on the 1st fret, standard tuning. (actually on the 2nd but with half step down tuning)
Download the TAB with the lyrics below.



DO I EVER CROSS YOUR MIND TAB

GP5 + GP6 + PDF >>

Intro                        - Capo on the 1st -

e-----------------------------------------------------------------------
B---1---1---1-----1---1---1-----1---1---1-------------------------------
G---------------0---------------0---------------------------------------
D-------0---0h2-----2---0---------------0-------------------------------
A---3-----------------------3-------3-----------------------------------
E-----------------------------------------------------------------------


e-----------------------------------------------------------------------
B---1-----1---1---1-----1---------1-------------------------------------
G-------0---------------0-------0---------------------------------------
D---0h2-----2---0-----------0h2-----------------------------------------
A-------------------3---------------------------------------------------
E-----------------------------------------------------------------------


e-----------------------------------------------------------------------
B-------1---------------0---------0-----1-----1---1-----1---------------
G---0-------------------0-----------------------------------0---0-------
D-----------2---0---------------0-------0h2-0---0-----------------------
A---------------------------0h2-----3---------------3---0-------0-------
E-------------------3---------------------------------------3-----------


20171008

EGOIST ALL ALONE WITH YOU TAB (FINGERSTYLE GUITAR COVER)

All Alone With You fingerstyle guitar cover played by heechan.
Original song by EGOIST. Dropped D tuning and CAPO on the 2nd fret.
Download the tab files below.



ALL ALONE WITH YOU FINGERSTYLE TAB

GP5 + GP6 + PDF >>

Part 1

e---5<17>-4<16>---------------------------------------------------------
B---------------5<17>-<12>----------------------------------------------
G----------------------------2<14>---1<13>---2<14>p1<13>----------------
D--------------------------------------------------------2<14>---<12>---
A-----------------------------------------------------------------------
D---0--------------------------------------2----------------------------


e---------0--------------------------<12>-------------------------------
B-------0-----------------------<12>------------------------------------
G---1-2-------------1<13>-2<14>-----------------------------------------
D-----------------------------------------------------------------------
A-----------------------------------------------------------------------
D---4-------------------------------------------------------------------


e-------------------------------------------------0---------------------
B---------------------------------------------0-----------------0-------
G---1-----2---------1-----2-----------------------------------2---2-----
D-----------------------2-----------6---6-7-----------------------------
A---------------------2---------------4---------------------------------
D---0---------------2---------------4-----------------------------------

20170923

THE AVETT BROTHERS FAMOUS FLOWERS OF MANHATTAN TAB (COVER BY MATT)

Famous Flowers of Manhattan (The Avett Brothers) cover played by Matt
He uses standard tuning with Capo on the 1st fret. (lyrics included too)
Download the Guitar Pro 6, GP5 and PDF files below.



THE AVETT BROTHERS FAMOUS FLOWERS OF MANHATTAN TAB

GP5 + GP6 + PDF >>

Intro

e-----------------------------------------------------------------------
B---3-------0--------------0--------------------------------------------
G---------------------0-2----2--0-0-------0-----------------------------
D--------0---------0---------0---------0--------------------------------
A-----------------------------------------------------------------------
E---3---------3---------3---------3-------------------------------------


e-----------------------------------------------------------------------
B------0---------0---------0-----------0--------------------------------
G---2----2--0-2----2--0-2----2--0-2-------0-----------------------------
D--------0---------0---------0---------0--------------------------------
A-----------------------------------------------------------------------
E---3---------3---------3---------3-------------------------------------


e-----------------------------------------------------------------------
B-----------1---------1---------1----0----------------------------------
G------0---------0---------0--------------0-----------------------------
D--------2---------2---------2---------2--------------------------------
A---3---------3---------3---------3-------------------------------------
E-----------------------------------------------------------------------


20170807

BEE GEES HOW DEEP IS YOUR LOVE TAB (FINGERSTYLE GUITAR COVER BY GIAN PIERO FERRINI)

Gian Piero Ferrini plays a great fingerstyle guitar cover of How Deep Is Your Love.
Dropped D tuning with CAPO on the 2nd fret. (original song by Bee Gees)
Download the Guitar Pro 6 and PDF files below.



GIAN PIERO FERRINI HOW DEEP IS YOUR LOVE TAB

GP6 + PDF >>

Intro

e-----------------------------------------------------------------------
B-----------------------0-------------------------------0---------------
G-----------0--h2---------------0---------------2---------------0-------
D-------0-----------0-------0-----------0--h4-------4-------4-----------
A-----------------------------------------------------------------------
D---5-------------------------------5-----------------------------------


e-----------------------------------------------------------------------
B---------------0-------------------0h1-----------------1---------------
G-----------0-----------0-------0---0-----------0-----------------0-----
D-------2-----------2-------2-------2-------2-------2-------0h2---------
A---3-------------------------------0-----------------------------------
D-----------------------------------------------------------------------


e-----------------------------------------------------------------------
B-----------------------0-------------------------------0---------------
G-----------0--h2---------------0---------------2---------------0-------
D-------0-----------0-------0-----------0--h4-------4-------4-----------
A-----------------------------------------------------------------------
D---5-------------------------------5-----------------------------------

 

20170629

LEONARD COHEN HALLELUJAH TAB (MINI COVER BY JEN TRANI)

Jen Trani plays Leonard Cohen's Hallelujah in the style of Jeff Buckley.
She uses open E tuning with Capo on the 4th fret.
Download the TAB below.



JEN TRANI HALLELUJAH TAB

GP5 + GP6 + PDF >>

Intro

e---------------7--------------11~----------------7--------------11~----
B------5-h7-/9-----9.-------9------------5-h7-/9-----9.-------9---------
Ab-----------------------0---------------------------------0------------
E-----------------------------------------------------------------------
B-----------------------------------------------------------------------
E---0-----------------9---------------0-----------------9---------------


e-----------------------------------------------------------------------
B----------5.-4--0-----------5.-4--0------------------------------------
Ab------5-----------5-----5-----------5---------------------------------
E-----------------------------------------------------------------------
B-----------------------------------------------------------------------
E----5-----------------5------------------------------------------------


e----------------------------------0------------------------------------
B----------7--7-----------------7-----7---------------------------------
Ab------7--------7-----------7------------------------------------------
E-----------------------------------------------------------------------
B-----------------------------------------------------------------------
E----7--------------7--7------------------------------------------------


20170425

CHRIS CORNELL ONE TAB (U2 MUSIC WITH METALLICA LYRICS)

Chris Cornell sings "One" with a single acoustic guitar.
U2 music with Metallica lyrics.
See the TAB below.



CHRIS CORNELL ONE TAB

GP5 + GP6 + PDF >>

Intro

e---0-------0-----0-0-0-0---0-0-0-0-2-------2-----2-2-2-2---2-2-2-2-----
B---1-------1-----1-1-1-0h1-1-1-1-1-1-------1-----1-1-1-0h1-1-1-1-1-----
G---2-------2-----2-2-2-2---2-2-2-2-2-------2-----2-2-2-2---2-2-2-2-----
D---2-------2-----2-2-2-2---2-2-2-2-0-------0-----0-0-0-0---0-0-0-0-----
A---0-------0-----0-0-0-0---0-0-0-0-------------------------------------
E-----------------------------------------------------------------------


e---0-----0-0-----0-0-0-0---0-0-0---3---3-3-3---3-3-3-3-3---3-3---------
B---1-----1-1-----1-1-1-0h1-1-1-1-0-0---0-0-1---1-1-1-0-0h1-1-1-1-------
G---2-----2-2-----2-2-2-2---2-2-2-0-0---0-0-0---0-0-0-0-0---0-0-0h2-----
D---3-----3-3-----3-3-3-3---3-3-3-0-0---0-0-0---0-0-0-0-0---0-0-0h2-----
A-----------------------------------2---2-2-2---2-2-2-2-2---2-2---------
E-----------------------------------3---3-3-3---3-3-3-3-3---3-3---------


e---0-----0-0---0-0-----0-----0-0-0-2-------2-----2-----2-----2-2-2-----
B---1-----1-1---1-0h1p0-1-----1-1-1-1-------1-----0h1p0-1-----1-1-1-----
G---2-----2-2---2-------2-----2-2-2-2-------2-----------2-----2-2-2-----
D---2-----2-2---2-------2-----2-2-2-0-------0-----------0-----0-0-0-----
A---0-----0-0---0-------0-----0-0-0-------------------------------------
E-----------------------------------------------------------------------


20170420

ALELA DIANE LADY DIVINE TAB (WITH LYRICS)


Alela Diane sings Lady Divine with a single acoustic guitar.
She put the Capo on the 7th and uses standard tuning.
See the TAB below.



ALELA DIANE LADY DIVINE TAB

GP5 + GP6 + PDF >>

Intro

e-----------------------------------------------------------------------
B---------0-------0-------0-------0-------0-------0-------0-------0-----
G-----0-------0-------0-------0-------0-------0-------0-------0---------
D-------0-------0-------0-------0-------0-------0-------0-------0-------
A-----------2---------------2---------------2---------------2-----------
E---3---------------3---------------3---------------3-------------------


Verse

e-----------------------------------------------------------------------
B---------0-------0-------0-------1-------1-------1-------1-------0-----
G-----0-------0-------0-------0-------0-------0-------0-------0---------
D-------0-------0-------0-------0-------2-------2-------2-------0-------
A-----------2---------------2-------3-------3-------3-------3-----------
E---3---------------3---------------------------------------------------


e-----------------------------------------------------------------------
B---------0-------0-------0-------1-------1-------1-------1-------0-----
G-----0-------0-------0-------0-------0-------0-------0-------0---------
D-------0-------0-------0-------0-------2-------2-------2-------0-------
A-----------2---------------2-------3-------3-------3-------3-----------
E---3---------------3---------------------------------------------------


20170315

MIKE HOWE A LONG WAY TO GO TAB (RE-VISITED)


Mike Howe - "A Long Way To Go" instrumental acoustic guitar song.
Capo on the 4th fret - standard tuning.
Download the Guitar Pro Tab below.



MIKE HOWE A LONG WAY TO GO TAB

GP5 + GP6 + PDF >> 

G1                         - Capo on the 4th -  
e-----------------------------------------------------------------------
B-----------------------------------------------------3---3-------3-----
G-----------------------------------------------------------------------
D-----------------------------------------------------------------------
A-----------------------------------------------------------------------
E-----------------------------------------------------------------------

G2
e---------0-------------------------------------------------------------
B-----3-----3---3---------3---------------3---------------3-------------
G-------0-----0---0---0-----0---0-----0-----0---0-----0-----0---0-------
D-----------------------2-----2---0-----0-----0---0-----0-----0---0-----
A---3---------------3---------------2---------------2-------------------
E-----------------------------------------------------------------------


G1
e-----------------------------------------------------------------------
B---3-5---5-------3-3-1---1-------1-1--3--3------3h5-3------------------
G-----------------------------------------------------------------------
D-----------------------------------------------------------------------
A-----------------------------------------------------------------------
E-----------------------------------------------------------------------


20170209

SOLAS JOHNNY'S GONE FOR A SOLDIER TAB (INTRO + VERSE)


Johnny's Gone For A Soldier based on the traditional Irish song, Suil a Ruin.
This version by Solas is played in Double Dropped D tuning with Capo on the 2nd fret.
Download the Guitar Pro Tab below.



SOLAS JOHNNY'S GONE FOR A SOLDIER TAB

GP5 + GP6 + PDF >>

Intro Solo

d---5-------4--5-4-------4-4\2--0---------------------------------------
B-------------------5---------------------------------------------------
G---------------------5-----------2h4-----------------------------------
D-----------------------------------------------------------------------
A-----------------------------------------------------------------------
D-----------------------------------------------------------------------


d-----------------0h2--5-3\2--0-----0-----------------------------------
B---------------------------------5-------------------------------------
G---4\2-0---0h2h4-----------------------0-------------------------------
D-----------------------------------------------------------------------
A-----------------------------------------------------------------------
D-----------------------------------------------------------------------


d---5--4-----------------------5--4-------------------------------------
B---------5--6/7--7\5--3-------------5----------------------------------
G-------------------------3/4-------------------------------------------
D-----------------------------------------------------------------------
A-----------------------------------------------------------------------
D-----------------------------------------------------------------------


20170124

MICHAEL MUCKLOW RAIN TAB (RELAXING ACOUSTIC GUITAR SONG)


Michael Mucklow - Rain - relaxing acoustic guitar song.
From the album - Silent Voices.
See the TAB under the video.


MICHAEL MUCKLOW RAIN TAB

GP5 + GP6 + PDF >>

Part 1

e------------------0--------------------0-------------------------------
B------------0--------0--------0-----------0----------------------------
G---------6--------------6--------6-----------6-------------------------
D------6--------6--------------------6-----------6----------------------
A---4-----------------------4-------------------------------------------
E-----------------------------------------------------------------------


e------------------------0----------------------------------------------
B---5-/7-----------7-----------7--------7-p0-h4-p0----------------------
G------------8--------------------8-------------------------------------
D-----------------------------------------------------------------------
A---------9-----9-----9-----9--------9----------------------------------
E---0-------------------------------------------------------------------


e------------------0--------------------0-------------------------------
B------------0--------0--------0-----------0----------------------------
G---------6--------------6--------6-----------6-------------------------
D------6--------6--------------------6-----------6----------------------
A---4-----------------------4-------------------------------------------
E-----------------------------------------------------------------------


20161104

DARIUS RUCKER HOMEGROWN HONEY TAB (ACOUSTIC)

Darius Rucker plays his original song Homegrown Honey with his friends.
Use standard tuning and put the Capo on the 2nd fret to play the lead guitar parts.
(Darius has the Capo on the 1st. - good idea )
Free Download of the Guitar Pro files !!!




DARIUS RUCKER HOMEGROWN HONEY ACOUSTIC TAB

GP5 + GP6 + PDF >>

Intro Solo                     - CAPO on the 2nd -

e-----------------------------------------------------------------------
B-----------------------------------------------------------------------
G-----------4.--6-6/8~--------------------------------------------------
D---4-4-6.--------------------------------------------------------------
A-----------------------------------------------------------------------
E-----------------------------------------------------------------------


e-----------------------------------------------------------------------
B--------------------------------7~-------------------------------------
G---------------4.--6-6/8~----------------8\6p4-------------------------
D---x-x-4-4-6.---------------------------------6~-----------------------
A-----------------------------------------------------------------------
E-----------------------------------------------------------------------


e-----------------------------------------------------------------------
B-------------------------7~--------------------------------------------
G---------------4.--6-6/8~----------------------------------------------
D---6-0-4-4-6.----------------------------------------------------------
A-----------------------------------------------------------------------
E-----------------------------------------------------------------------


20161013

SLASH & MYLES KENNEDY BACK FROM CALI TAB (UNPLUGGED)

Slash & Myles Kennedy perform 'Back From Cali' with 2 acoustic guitars.
Great unplugged version, half-step down tuning.
Download the Guitar Pro Tab of the intro part.



SLASH & MYLES KENNEDY BACK FROM CALI TAB

GP5 + GP6 + PDF >>

Intro

eb-----------------------------------------------------------------------
Bb----------0-------3-0.--0.--0-----0-------x-------5\3.--3--------------
Gb---4------2h4.----4-4.--2.--4p2.--1~------x-------------2---2----------
Db---4------4-------4-----4.--4-----2~------x---4/6-6\4.--4--------------
Ab---2----------------------------------------------------------0.-------
Eb-----------------------------------------------------------------------


eb-----------------------------------------------------------------------
Bb----------0-------3-0.--0.--0-----0-------x-------5\3.--3--------------
Gb---4------2h4.----4-4.--2.--4p2.--1~------x-------------2---2----------
Db---4------4-------4-----4.--4-----2~------x---4/6-6\4.--4--------------
Ab---2----------------------------------------------------------0.-------
Eb-----------------------------------------------------------------------


eb-----------------------------------------------------------------------
Bb----------0-------3-0.--0.--0-----0-------x-------5\3.--3--------------
Gb---4------2h4.----4-4.--2.--4p2.--1~------x-------------2---2----------
Db---4------4-------4-----4.--4-----2~------x---4/6-6\4.--4--------------
Ab---2----------------------------------------------------------0.-------
Eb-----------------------------------------------------------------------

 

20160625

BLAZE FOLEY CLAY PIGEONS TAB (RARE LIVE)


Blaze Foley sings Clay Pigeons on the front porch.
He is using standard tuning with Capo on the 2nd fret.
See the TAB under the video.



BLAZE FOLEY CLAY PIGEONS TAB

GP5 + GP6 + PDF >>

Intro                  Capo on the 2nd

e-----------------------------------------------------------------------
B---0---------0-----1p0-------0-----1---------1-----3p1-------1---------
G---------0---------------2---------------0---------------0-------------
D-------0-------0-------0-------0-------2-------2-------2-------2p0-----
A-----------------------------------3---------------3-------------------
E---3-------3-------3-------3---------------3---------------3-----------


e-------------------------------------------------3---------------------
B-------------0-----------3-------------------0---------------0---------
G---------0-------2-----------2---0-------------------------------0-----
D-------0-------0-------0-------0-------0-------0-------0-------0-------
A-----------------------------------------------------------------------
E---3-------3-------2-------2-------3-------3-------3-------3-----------


Verse

e-----------------------------------------------------------------------
B-------------0---------------0-----1---------1---------------1---------
G-----------------0---------------0-------0-------0---------------0-----
D-------0-------0-------0-------0-------2-------2-------2-------2-------
A-----------------------------------3---------------3-------------------
E---3-------3-------3-------3---------------3---------------3-----------


20160507

JULIE BERGAN RUDE TAB (ACOUSTIC COVER OF THE MAGIC! SONG)

Julie Bergan sings Rude by MAGIC!
Great acoustic cover with just 1 guitar and her brilliant voice.
See the TAB under the video.



JULIE BERGAN RUDE TAB (ACOUSTIC)

GP5 + GP6 + PDF >>

Intro

e-----------------------------------------------------------------------
B---------0---------------0---------------0-----------------------------
G-------6-----6---------8-----8---------9-----9-----9/11.---13.---4-----
D-----2-----------2---4-----------4---6-----------6---------------------
A---0-------------------------------------------------------------------
E-------------------7---------------9---------------9/11.---12.---4-----


e-------------------------------------------------0---------------------
B---------0---------------0-------------------0-------------------------
G-------6-----6---------8-----8-----------1-----------------------------
D-----2-----------2---4-----------4-----4-------------------------------
A---0---------------------------------2---------------------------------
E-------------------7---------------0-----------------------------------


Verse

e-----------------------------------------------------------------------
B-----------------------------------------------------------------------
G---6---------------8---------------9---------------4-------------------
D---2---------------4---------------6---------------2-------------------
A---0-------------------------------------------------------------------
E-------------------7---------------9---------------4-------------------


20160406

DIGIMON LA TABKI YA SAGHIRI TAB (COVER BY HIDA, لا تبكي يا صغيري ابطال الديجيتال TAB)

Digimon - La Tabki Ya Saghiri played on acoustic guitar.
Capo on 2nd fret but the guitar is tuned down 2 steps - so it's actually a normal standard tuning. See the TAB under the video.



DIGIMON LA TABKI YA SAGHIRI TAB

GP5 + GP6 + PDF >>

Part 1

e-----------5/7-5~-----------7-9-9/10-----9--\--7.--5~------7~----------
B-------5.--------------------------------------------------------------
G---4/6-----------------------------------------------------------------
D-----------------------------------------------------------------------
A-----------------------------------------------------------------------
E-----------------------------------------------------------------------


e-----------5/7-5~-----------7-9-9/10-----9-- \--7.--5~------7~----------
B-------5.--------------------------------------------------------------
G---4/6-----------------------------------------------------------------
D-----------------------------------------------------------------------
A-----------------------------------------------------------------------
E-----------------------------------------------------------------------


e---5~-----------------------------------------9/10--9.-----------------
B-------------------------------5/7-7~-------------------10-------------
G-----------------------------------------------------------9.----------
D-----------------------------------------------------------------------
A-----------------------------------------------------------------------
E-----------------------------------------------------------------------


20160210

SLASH & MYLES KENNEDY PATIENCE TAB (ACOUSTIC LIVE @ MAX SESSIONS)

Slash & Myles Kennedy play Patience live at MAX Sessions.
They both use half step down tuning. The songs starts about 2:20.
See the TAB Slash's guitar playing under the video.


SLASH & MYLES KENNEDY PATIENCE TAB (ACOUSTIC)

PDF >>

Intro

eb---0-------0----------------------------------------------------------
Bb---1---------------3p1---0h1------------------------------------------
Gb---0-------------------------0---0-----0---------0-------0------------
Db---2-------------2-----2-------2-----0-----------------0---0-----0----
Ab---3-----------3-------------------2---------0-------2-------2--------
Eb---------------------------------------------------3-----------3------


eb--------------------------------------------0h2---2-3-2-----2---------
Bb--------2h3-2-------------2-3-2---------3-------3-------3-----3---8~--
Gb------2-------2---2-----2-------2-----2---2---------------2----/9-----
Db----2-----------2-----2-----------2-0---------------------------------
Ab--0-----------------0-------------------------------------------------
Eb----------------------------------------------------------------------


eb-------------------10-----------------------7-8-9-10------------------
Bb-----10-8-10(12)-----(12)(10)p8-10-8-10(12)----------10(12).---8~-----
Gb----------------------------------------------------------------------
Db----------------------------------------------------------------------
Ab----------------------------------------------------------------------
Eb----------------------------------------------------------------------