Showing posts with label acoustic. Show all posts
Showing posts with label acoustic. Show all posts

20170425

CHRIS CORNELL ONE TAB (U2 MUSIC WITH METALLICA LYRICS)

Chris Cornell sings "One" with a single acoustic guitar.
U2 music with Metallica lyrics.
See the TAB below.



CHRIS CORNELL ONE TAB

GP5 + GP6 + PDF >>

Intro

e---0-------0-----0-0-0-0---0-0-0-0-2-------2-----2-2-2-2---2-2-2-2-----
B---1-------1-----1-1-1-0h1-1-1-1-1-1-------1-----1-1-1-0h1-1-1-1-1-----
G---2-------2-----2-2-2-2---2-2-2-2-2-------2-----2-2-2-2---2-2-2-2-----
D---2-------2-----2-2-2-2---2-2-2-2-0-------0-----0-0-0-0---0-0-0-0-----
A---0-------0-----0-0-0-0---0-0-0-0-------------------------------------
E-----------------------------------------------------------------------


e---0-----0-0-----0-0-0-0---0-0-0---3---3-3-3---3-3-3-3-3---3-3---------
B---1-----1-1-----1-1-1-0h1-1-1-1-0-0---0-0-1---1-1-1-0-0h1-1-1-1-------
G---2-----2-2-----2-2-2-2---2-2-2-0-0---0-0-0---0-0-0-0-0---0-0-0h2-----
D---3-----3-3-----3-3-3-3---3-3-3-0-0---0-0-0---0-0-0-0-0---0-0-0h2-----
A-----------------------------------2---2-2-2---2-2-2-2-2---2-2---------
E-----------------------------------3---3-3-3---3-3-3-3-3---3-3---------


e---0-----0-0---0-0-----0-----0-0-0-2-------2-----2-----2-----2-2-2-----
B---1-----1-1---1-0h1p0-1-----1-1-1-1-------1-----0h1p0-1-----1-1-1-----
G---2-----2-2---2-------2-----2-2-2-2-------2-----------2-----2-2-2-----
D---2-----2-2---2-------2-----2-2-2-0-------0-----------0-----0-0-0-----
A---0-----0-0---0-------0-----0-0-0-------------------------------------
E-----------------------------------------------------------------------


20170420

ALELA DIANE LADY DIVINE TAB (WITH LYRICS)


Alela Diane sings Lady Divine with a single acoustic guitar.
She put the Capo on the 7th and uses standard tuning.
See the TAB below.



ALELA DIANE LADY DIVINE TAB

GP5 + GP6 + PDF >>

Intro

e-----------------------------------------------------------------------
B---------0-------0-------0-------0-------0-------0-------0-------0-----
G-----0-------0-------0-------0-------0-------0-------0-------0---------
D-------0-------0-------0-------0-------0-------0-------0-------0-------
A-----------2---------------2---------------2---------------2-----------
E---3---------------3---------------3---------------3-------------------


Verse

e-----------------------------------------------------------------------
B---------0-------0-------0-------1-------1-------1-------1-------0-----
G-----0-------0-------0-------0-------0-------0-------0-------0---------
D-------0-------0-------0-------0-------2-------2-------2-------0-------
A-----------2---------------2-------3-------3-------3-------3-----------
E---3---------------3---------------------------------------------------


e-----------------------------------------------------------------------
B---------0-------0-------0-------1-------1-------1-------1-------0-----
G-----0-------0-------0-------0-------0-------0-------0-------0---------
D-------0-------0-------0-------0-------2-------2-------2-------0-------
A-----------2---------------2-------3-------3-------3-------3-----------
E---3---------------3---------------------------------------------------


20170315

MIKE HOWE A LONG WAY TO GO TAB (RE-VISITED)


Mike Howe - "A Long Way To Go" instrumental acoustic guitar song.
Capo on the 4th fret - standard tuning.
Download the Guitar Pro Tab below.



MIKE HOWE A LONG WAY TO GO TAB

GP5 + GP6 + PDF >> 

G1                         - Capo on the 4th -  
e-----------------------------------------------------------------------
B-----------------------------------------------------3---3-------3-----
G-----------------------------------------------------------------------
D-----------------------------------------------------------------------
A-----------------------------------------------------------------------
E-----------------------------------------------------------------------

G2
e---------0-------------------------------------------------------------
B-----3-----3---3---------3---------------3---------------3-------------
G-------0-----0---0---0-----0---0-----0-----0---0-----0-----0---0-------
D-----------------------2-----2---0-----0-----0---0-----0-----0---0-----
A---3---------------3---------------2---------------2-------------------
E-----------------------------------------------------------------------


G1
e-----------------------------------------------------------------------
B---3-5---5-------3-3-1---1-------1-1--3--3------3h5-3------------------
G-----------------------------------------------------------------------
D-----------------------------------------------------------------------
A-----------------------------------------------------------------------
E-----------------------------------------------------------------------


20170209

SOLAS JOHNNY'S GONE FOR A SOLDIER TAB (INTRO + VERSE)


Johnny's Gone For A Soldier based on the traditional Irish song, Suil a Ruin.
This version by Solas is played in Double Dropped D tuning with Capo on the 2nd fret.
Download the Guitar Pro Tab below.



SOLAS JOHNNY'S GONE FOR A SOLDIER TAB

GP5 + GP6 + PDF >>

Intro Solo

d---5-------4--5-4-------4-4\2--0---------------------------------------
B-------------------5---------------------------------------------------
G---------------------5-----------2h4-----------------------------------
D-----------------------------------------------------------------------
A-----------------------------------------------------------------------
D-----------------------------------------------------------------------


d-----------------0h2--5-3\2--0-----0-----------------------------------
B---------------------------------5-------------------------------------
G---4\2-0---0h2h4-----------------------0-------------------------------
D-----------------------------------------------------------------------
A-----------------------------------------------------------------------
D-----------------------------------------------------------------------


d---5--4-----------------------5--4-------------------------------------
B---------5--6/7--7\5--3-------------5----------------------------------
G-------------------------3/4-------------------------------------------
D-----------------------------------------------------------------------
A-----------------------------------------------------------------------
D-----------------------------------------------------------------------


20170124

MICHAEL MUCKLOW RAIN TAB (RELAXING ACOUSTIC GUITAR SONG)


Michael Mucklow - Rain - relaxing acoustic guitar song.
From the album - Silent Voices.
See the TAB under the video.


MICHAEL MUCKLOW RAIN TAB

GP5 + GP6 + PDF >>

Part 1

e------------------0--------------------0-------------------------------
B------------0--------0--------0-----------0----------------------------
G---------6--------------6--------6-----------6-------------------------
D------6--------6--------------------6-----------6----------------------
A---4-----------------------4-------------------------------------------
E-----------------------------------------------------------------------


e------------------------0----------------------------------------------
B---5-/7-----------7-----------7--------7-p0-h4-p0----------------------
G------------8--------------------8-------------------------------------
D-----------------------------------------------------------------------
A---------9-----9-----9-----9--------9----------------------------------
E---0-------------------------------------------------------------------


e------------------0--------------------0-------------------------------
B------------0--------0--------0-----------0----------------------------
G---------6--------------6--------6-----------6-------------------------
D------6--------6--------------------6-----------6----------------------
A---4-----------------------4-------------------------------------------
E-----------------------------------------------------------------------


20161104

DARIUS RUCKER HOMEGROWN HONEY TAB (ACOUSTIC)

Darius Rucker plays his original song Homegrown Honey with his friends.
Use standard tuning and put the Capo on the 2nd fret to play the lead guitar parts.
(Darius has the Capo on the 1st. - good idea )
Free Download of the Guitar Pro files !!!




DARIUS RUCKER HOMEGROWN HONEY ACOUSTIC TAB

GP5 + GP6 + PDF >>

Intro Solo                     - CAPO on the 2nd -

e-----------------------------------------------------------------------
B-----------------------------------------------------------------------
G-----------4.--6-6/8~--------------------------------------------------
D---4-4-6.--------------------------------------------------------------
A-----------------------------------------------------------------------
E-----------------------------------------------------------------------


e-----------------------------------------------------------------------
B--------------------------------7~-------------------------------------
G---------------4.--6-6/8~----------------8\6p4-------------------------
D---x-x-4-4-6.---------------------------------6~-----------------------
A-----------------------------------------------------------------------
E-----------------------------------------------------------------------


e-----------------------------------------------------------------------
B-------------------------7~--------------------------------------------
G---------------4.--6-6/8~----------------------------------------------
D---6-0-4-4-6.----------------------------------------------------------
A-----------------------------------------------------------------------
E-----------------------------------------------------------------------


20161013

SLASH & MYLES KENNEDY BACK FROM CALI TAB (UNPLUGGED)

Slash & Myles Kennedy perform 'Back From Cali' with 2 acoustic guitars.
Great unplugged version, half-step down tuning.
Download the Guitar Pro Tab of the intro part.



SLASH & MYLES KENNEDY BACK FROM CALI TAB

GP5 + GP6 + PDF >>

Intro

eb-----------------------------------------------------------------------
Bb----------0-------3-0.--0.--0-----0-------x-------5\3.--3--------------
Gb---4------2h4.----4-4.--2.--4p2.--1~------x-------------2---2----------
Db---4------4-------4-----4.--4-----2~------x---4/6-6\4.--4--------------
Ab---2----------------------------------------------------------0.-------
Eb-----------------------------------------------------------------------


eb-----------------------------------------------------------------------
Bb----------0-------3-0.--0.--0-----0-------x-------5\3.--3--------------
Gb---4------2h4.----4-4.--2.--4p2.--1~------x-------------2---2----------
Db---4------4-------4-----4.--4-----2~------x---4/6-6\4.--4--------------
Ab---2----------------------------------------------------------0.-------
Eb-----------------------------------------------------------------------


eb-----------------------------------------------------------------------
Bb----------0-------3-0.--0.--0-----0-------x-------5\3.--3--------------
Gb---4------2h4.----4-4.--2.--4p2.--1~------x-------------2---2----------
Db---4------4-------4-----4.--4-----2~------x---4/6-6\4.--4--------------
Ab---2----------------------------------------------------------0.-------
Eb-----------------------------------------------------------------------

 

20160625

BLAZE FOLEY CLAY PIGEONS TAB (RARE LIVE)


Blaze Foley sings Clay Pigeons on the front porch.
He is using standard tuning with Capo on the 2nd fret.
See the TAB under the video.



BLAZE FOLEY CLAY PIGEONS TAB

GP5 + GP6 + PDF >>

Intro                  Capo on the 2nd

e-----------------------------------------------------------------------
B---0---------0-----1p0-------0-----1---------1-----3p1-------1---------
G---------0---------------2---------------0---------------0-------------
D-------0-------0-------0-------0-------2-------2-------2-------2p0-----
A-----------------------------------3---------------3-------------------
E---3-------3-------3-------3---------------3---------------3-----------


e-------------------------------------------------3---------------------
B-------------0-----------3-------------------0---------------0---------
G---------0-------2-----------2---0-------------------------------0-----
D-------0-------0-------0-------0-------0-------0-------0-------0-------
A-----------------------------------------------------------------------
E---3-------3-------2-------2-------3-------3-------3-------3-----------


Verse

e-----------------------------------------------------------------------
B-------------0---------------0-----1---------1---------------1---------
G-----------------0---------------0-------0-------0---------------0-----
D-------0-------0-------0-------0-------2-------2-------2-------2-------
A-----------------------------------3---------------3-------------------
E---3-------3-------3-------3---------------3---------------3-----------


20160507

JULIE BERGAN RUDE TAB (ACOUSTIC COVER OF THE MAGIC! SONG)

Julie Bergan sings Rude by MAGIC!
Great acoustic cover with just 1 guitar and her brilliant voice.
See the TAB under the video.



JULIE BERGAN RUDE TAB (ACOUSTIC)

GP5 + GP6 + PDF >>

Intro

e-----------------------------------------------------------------------
B---------0---------------0---------------0-----------------------------
G-------6-----6---------8-----8---------9-----9-----9/11.---13.---4-----
D-----2-----------2---4-----------4---6-----------6---------------------
A---0-------------------------------------------------------------------
E-------------------7---------------9---------------9/11.---12.---4-----


e-------------------------------------------------0---------------------
B---------0---------------0-------------------0-------------------------
G-------6-----6---------8-----8-----------1-----------------------------
D-----2-----------2---4-----------4-----4-------------------------------
A---0---------------------------------2---------------------------------
E-------------------7---------------0-----------------------------------


Verse

e-----------------------------------------------------------------------
B-----------------------------------------------------------------------
G---6---------------8---------------9---------------4-------------------
D---2---------------4---------------6---------------2-------------------
A---0-------------------------------------------------------------------
E-------------------7---------------9---------------4-------------------


20160406

DIGIMON LA TABKI YA SAGHIRI TAB (COVER BY HIDA, لا تبكي يا صغيري ابطال الديجيتال TAB)

Digimon - La Tabki Ya Saghiri played on acoustic guitar.
Capo on 2nd fret but the guitar is tuned down 2 steps - so it's actually a normal standard tuning. See the TAB under the video.



DIGIMON LA TABKI YA SAGHIRI TAB

GP5 + GP6 + PDF >>

Part 1

e-----------5/7-5~-----------7-9-9/10-----9--\--7.--5~------7~----------
B-------5.--------------------------------------------------------------
G---4/6-----------------------------------------------------------------
D-----------------------------------------------------------------------
A-----------------------------------------------------------------------
E-----------------------------------------------------------------------


e-----------5/7-5~-----------7-9-9/10-----9-- \--7.--5~------7~----------
B-------5.--------------------------------------------------------------
G---4/6-----------------------------------------------------------------
D-----------------------------------------------------------------------
A-----------------------------------------------------------------------
E-----------------------------------------------------------------------


e---5~-----------------------------------------9/10--9.-----------------
B-------------------------------5/7-7~-------------------10-------------
G-----------------------------------------------------------9.----------
D-----------------------------------------------------------------------
A-----------------------------------------------------------------------
E-----------------------------------------------------------------------


20160210

SLASH & MYLES KENNEDY PATIENCE TAB (ACOUSTIC LIVE @ MAX SESSIONS)

Slash & Myles Kennedy play Patience live at MAX Sessions.
They both use half step down tuning. The songs starts about 2:20.
See the TAB Slash's guitar playing under the video.


SLASH & MYLES KENNEDY PATIENCE TAB (ACOUSTIC)

PDF >>

Intro

eb---0-------0----------------------------------------------------------
Bb---1---------------3p1---0h1------------------------------------------
Gb---0-------------------------0---0-----0---------0-------0------------
Db---2-------------2-----2-------2-----0-----------------0---0-----0----
Ab---3-----------3-------------------2---------0-------2-------2--------
Eb---------------------------------------------------3-----------3------


eb--------------------------------------------0h2---2-3-2-----2---------
Bb--------2h3-2-------------2-3-2---------3-------3-------3-----3---8~--
Gb------2-------2---2-----2-------2-----2---2---------------2----/9-----
Db----2-----------2-----2-----------2-0---------------------------------
Ab--0-----------------0-------------------------------------------------
Eb----------------------------------------------------------------------


eb-------------------10-----------------------7-8-9-10------------------
Bb-----10-8-10(12)-----(12)(10)p8-10-8-10(12)----------10(12).---8~-----
Gb----------------------------------------------------------------------
Db----------------------------------------------------------------------
Ab----------------------------------------------------------------------
Eb----------------------------------------------------------------------


20160205

LYLE WORKMAN AND THE FOREST RANGERS FORTUNATE SON TAB (SONS OF ANARCHY)

Two nylon stringed acoustic guitars and one song called Fortunate Son.
Music from Sons of Anarchy played by Lyle Workman & The Forest Rangers.
Original song by Creedence Clearwater Revival.
See the TAB under the video.


LYLE WORKMAN AND THE FOREST RANGERS FORTUNATE SON TAB

GP5 + GP6 + PDF >>

Part 1

G1
e-----3----------------1------------------------------------------------
B----------------------------------------5-----------------3------------
G--2/4--------------4\2-------------------------------------------------
D-------------------------------------3/5---------------5\3-------------
A-----------------------------------------------------------------------
E-----------------------------------------------------------------------

G2
e----------7---------------5---------------3---------------7------------
B--------------0-------------------------------1------------------------
G--0---------0---0---5---------5-----0-------------------7--------------
D------------------3---------3---3-2-----2---2---2----------------------
A-----------------------------------------------------------------------
E-----------------------------------------------------------------------


G1
e-----3----------------1------------------------------------------------
B----------------------------------------5-----------------3------------
G--2/4--------------4\2-------------------------------------------------
D-------------------------------------3/5---------------5\3-------------
A-----------------------------------------------------------------------
E-----------------------------------------------------------------------

G2
e----------7---------------5---------------3-----------7----------------
B----------------------------------------1---1--------------------------
G--------7-----7---------5-----5-----0---------------7---7--------------
D--5---------5---5-3---------3---3-2-----------2---5-------5------------
A-----------------------------------------------------------------------
E-----------------------------------------------------------------------


20151221

BOYCE AVENUE GOD MUST HAVE SPENT TAB (ORIGINAL SONG BY N'SYNC)

God Must Have Spent (N'SYNC) played by Boyce Avenue.
Great acoustic cover. Standard tuning, CAPO on the 2nd.
See the TAB under the video.



BOYCE AVENUE GOD MUST HAVE SPENT TAB

GP5 + GP6 + PDF >>

Intro

e-----------------------------------------------------------------------
B-----------------------------------------------------------------------
G---0--h2.--2h4-0-----------0---------------0---0-----------------------
D---0-----------2-------2-----------4-----------0-----------------------
A---------------3-------------------5-----------------------------------
E---3-------------------------------5-----------3-----------------------


e-----------------------------------------------------------------------
B-----------------------------------------------------------------------
G---0--h2.--2h4-0-----------0---------------0---0-----------------------
D---0-----------2-------2-----------4-----------0-----------0h2---------
A---------------3-------------------5-----------------------------------
E---3-------------------------------5-----------3-----------------------


e-----------------------------------------------------------------------
B-------------------------------------------3---0-----------------------
G---0--h2.--2h4-0-----------0-------4---5.--------------0---------------
D---0-----------2-------2-----------0-----------------------2-----------
A---------------3-------------------0---------------------------2-------
E---3-------------------------------------------0-----------------------


20151205

JASON MRAZ FLY ME TO THE MOON TAB (ACOUSTIC VERSION)

Jason Mraz plays Fly Me To The Moon with a Venezuelan cuatro.
The tuning is the same as the 4 higher strings on a normal guitar - so DGBE.
See the TAB under the video.


JASON MRAZ FLY ME TO THE MOON TAB (ACOUSTIC VERSION)

PDF >>

Chords


    Am        Dm        G       C maj7       F          F6

e---5---------5---------3---------3----------1----------1---------------
B---5---------6---------3---------5----------1----------3---------------
G---5---------7---------4---------4----------2----------2---------------
D---7---------7---------5---------5----------3----------3---------------

   
    E7        A7        E

e---7---------5---------12----------------------------------------------
B---5---------5---------9-----------------------------------------------
G---7---------6---------9-----------------------------------------------
D---6---------5---------9-----------------------------------------------



Am            Dm
Fly me to the moon

           G              C maj7
And let me play among the stars

     F                 F6
And let me know what spring is like

 E7              Am
On Jupiter and Mars


20151022

SLASH & MYLES KENNEDY STARLIGHT TAB (LIVE ACOUSTIC INTRO)

Slash & Myles Kennedy perform Starlight acoustic live at Max Sessions.
They both use half-step-down tuning.
See the TAB of the intro part below.


SLASH & MYLES KENNEDY STARLIGHT TAB

GP5 + GP6 + PDF >>

Intro

eb----------------------------------------------------------------------
Bb--------------------10----10.-----------------------------------------
Gb--------------------9h11--9.---9-------------9------------------------
Db---9h11~-----------------------9h11-9\7-9/11--------------------------
Ab---0------------------------------------------------------------------
Eb----------------------------------------------------------------------


eb----------------------------------------------------------------------
Bb-----------10----10.--------------------------------------------------
Gb-----------9h11--9.---9----9------------------------------------------
Db----------------------9h11--------------------------------------------
Ab---0------------------------------------------------------------------
Eb----------------------------------------------------------------------


eb-------------------------12-------------------------------------------
Bb----------9-------9h10--------10----9-------9-------9h10-9---9----9---
Gb--------------------------------9----------------------------9h11-9---
Db--------9-------9------9----------9-9-------9-----9-9----9------------
Ab----------------------------------------------------------------------
Eb--0-------------------------------------------------------------------



20150906

JOSH TURNER YOUR MAN TAB (LIVE AT THE BING LOUNGE, CHORDS AND SOLO)


Josh Turner plays an acoustic version of Your Man live at the Bing Lounge.
The TAB includes the lead guitar parts and the chords.



JOSH TURNER YOUR MAN TAB

PDF >>

Intro solo
                                   A
e-----------------------------------------------------------------------
B-----------------------------------------------------------------------
G------------------------------4.--2---------2--------------------------
D--------------------2.--4/6-------2h4p2-----2--------------------------
A-----------2.--/4-----------------------4------------------------------
E---0--/4---------------------------------------------------------------

                           E
e-----------------------------------------------------------------------
B-----------------------------------------------------------------------
G------------2----------------------------------------------------------
D--------2-------2h4---2.-----------------------------------------------
A---/4---------------------4---2h4p2-----2------------------------------
E------------------------------------5---4------------------------------

                          B7
e-----------------------------------------------------------------------
B-----------------------------------------------------------------------
G-----------------------------------------------------------------------
D-------------------------4-----------4-----------4---------------------
A---2h4p2-----2---4---2-------5---6-----------5h6-----6\4---2---2-------
E---------4-------------------------------------------------------------

                               E
e-----------------------------------------------------------------------
B-----------------------------------------------------------------------
G--------4--------------------------------------------------------------
D---/6-------6\4--p2-----------2----------------------------------------
A----------------------4---2--------------------------------------------
E-----------------------------------------------------------------------

                        E
e-----------------------------------------------------------------------
B-----------------------------------------------------------------------
G-----------------------------------------------------------------------
D---2.------------------------------------------------------------------
A-------2h4-2-----------2.----------------------------------------------
E---------------4\2-0---0.----------------------------------------------

20150628

TOOL RIGHT IN TWO TAB (ACOUSTIC COVER BY SHAMETHEDOG)

Great acoustic guitar cover of Right In Two by Tool.
The song is played in Dropped D tuning.
See the TAB under the video.


TOOL RIGHT IN TWO TAB

GP5 + GP6 + PDF >> 

Part 1

e-----------------------------------------------------------------------
B-----------------------------------------------------------------------
G-----------------------------------------------------------------------
D-----------7/10---------10-----------7--------12-----------------------
A---------5------------8----0-------5---0-------------------------------
D---0------------8------------5-----------10----------------------------


e-----------------------------------------------------------------------
B-----------------------------------------------------------------------
G-----------------------------------------------------------------------
D-----------7/10---------10-----------7--------12h13--------------------
A---------5------------8----0-------5---0-------------------------------
D---0------------8------------5-----------10----------------------------


e-----------------------------------------------------------------------
B-----------------------------------------------------------------------
G-----------------------------------------------------------------------
D-----------7/10---------10-----------7--------12-----------------------
A---------5------------8----0-------5---0-------------------------------
D---0------------8------------5-----------10----------------------------


20150507

SWORD ART ONLINE II ED 3 SHIRUSHI TAB (FINGERSTYLE COVER BY JASON SZETO)

Jason Szeto's fingerstyle acoustic guitar cover of Shirushi (Sword Art Online II ED 3)
Original video title: Sword Art Online II ED 3 (Shirushi) acoustic guitar fingerstyle solo.
He is using standard tuning with CAPO on 1st.
See the TAB under the video.


SHIRUSHI TAB

GP5 + GP6 + PDF >> 

Part 1

e-----------------------------------------------------------------------
B---3-------------------------------3-----------------------------------
G---0-----0-----1/2---------0---0h2-2-----2---0-------0-----------------
D---2---2-------0---------1---1---------0-----2----/4---4-2-0-----------
A---3-------------------------------2---------2-------------------------
E---------------------------------------------0-------------------------

    T
e-----------7---------------12-\----10----------------------------------
B-------10------0---10--------------10----------0-----------------------
G-----------------------------------0-------0h2-------------------------
D-------------------0-------------------------------0-------------------
A-----------------------------------------------------------------------
E---9-------------------------------8-----------------------------------


e-------------------10--------------------------------------------------
B-------------------10--------------------------------------------------
G---1/2-------------0---------------------------------------------------
D-----------------------------------------------------------------------
A-----------------------------------------------------------------------
E------------------------------------------------x---0------------------


20150418

SAY CHANCE GRAVITY TAB (JOHN MAYER SONG)


Great acoustic cover of John Mayer's Gravity by Say Chance (Kelly, Maddie & Taylor)
Awesome guitar playing by Kelly Rosenthal. Standard tuning & CAPO on 3rd.
See the TAB under the video.



SAY CHANCE GRAVITY TAB

PDF >>

Intro

e-----------------------------------------------------------------------
B---3-----------3---------3-----3---------3-----3-----------------------
G---4-----------2h4-------4h5---5p4-------2h4---4p2---------------------
D---5---------------------5-----5---------------------5-----------------
A-----------------------------------------------------------------------
E---3---------3---------3---------------3-------------------------------


e-----------------------------------------------------------------------
B-----------------------------------------------------------------------
G---5---5-------5---5---5---5---5-------5---5---------------------------
D---5---5-------5---5h7-5h7-5---5-------5h7-5---5.--0-------------------
A---5h7-------7-5h7---------5h7-------7-----7---5.----------------------
E-----------------------------------------------------------------------


e---------------5/7---3------------------------------------------------
B---3---------------------3---3---------------3-3-----3----------------
G---4-----------5/7---4---2h4-2h4-------4-----5-4p2---2----------------
D---5-----------------------------------------------5------------------
A----------------------------------------------------------------------
E---3---------3---------3-------------------3--------------------------


20150125

JOHN 5 THE CASTLE TAB

John 5 - The Castle is a brilliant guitar song. Exciting guitar playing in a great tuning.
In the original record he uses Open Dsus4 tuning: that is D A D G A D.
See the TAB of the main parts under the video.



JOHN 5 THE CASTLE TAB

GP5 + GP6 + PDF >>

Intro                     - open Dsus4 tuning -

D---------------0-------------------------------0-----------------------
A-----0---5p0---------0---3p0---0-----0---2p0---------0---3p0---0-------
G-------------0---------------0---------------0---------------0---------
D-----------------------------------------------------------------------
A-0h5---5---------0h3---3---------0h2---2---------0h3---3---------------
D-----------------------------------------------------------------------


D---------------0-------------------------------0---------------0-------
A-----0---5p0---------0---3p0---0-----0---2p0---------8---8\7-----------
G-------------0---------------0---------------0---------------0---------
D-----------------------------------------------------------------------
A-0h5---5---------0h3---3---------0h2---2---------2/8---8---------------
D-----------------------------------------------------------------------


D---------------0-------------------------------0-----------------------
A-----0---5p0---------0---3p0---0-----0---2p0---------0---3p0---0-------
G-------------0---------------0---------------0---------------0---------
D-----------------------------------------------------------------------
A-0h5---5---------0h3---3---------0h2---2---------0h3---3---------------
D-----------------------------------------------------------------------