Showing posts with label alela diane. Show all posts
Showing posts with label alela diane. Show all posts

20170420

ALELA DIANE LADY DIVINE TAB (WITH LYRICS)


Alela Diane sings Lady Divine with a single acoustic guitar.
She put the Capo on the 7th and uses standard tuning.
See the TAB below.



ALELA DIANE LADY DIVINE TAB

GP5 + GP6 + PDF >>

Intro

e-----------------------------------------------------------------------
B---------0-------0-------0-------0-------0-------0-------0-------0-----
G-----0-------0-------0-------0-------0-------0-------0-------0---------
D-------0-------0-------0-------0-------0-------0-------0-------0-------
A-----------2---------------2---------------2---------------2-----------
E---3---------------3---------------3---------------3-------------------


Verse

e-----------------------------------------------------------------------
B---------0-------0-------0-------1-------1-------1-------1-------0-----
G-----0-------0-------0-------0-------0-------0-------0-------0---------
D-------0-------0-------0-------0-------2-------2-------2-------0-------
A-----------2---------------2-------3-------3-------3-------3-----------
E---3---------------3---------------------------------------------------


e-----------------------------------------------------------------------
B---------0-------0-------0-------1-------1-------1-------1-------0-----
G-----0-------0-------0-------0-------0-------0-------0-------0---------
D-------0-------0-------0-------0-------2-------2-------2-------0-------
A-----------2---------------2-------3-------3-------3-------3-----------
E---3---------------3---------------------------------------------------