Showing posts with label barallobre. Show all posts
Showing posts with label barallobre. Show all posts

20170727

THE BEATLES IN MY LIFE TAB (INSTRUMENTAL GUITAR COVER BY ROBERTO BARALLOBRE)


Roberto Barallobre plays a great instrumental guitar cover of In My Life by The Beatles.
Download the TAB below.



THE BEATLES IN MY LIFE INSTRUMENTAL TAB

GP5 + GP6 + PDF >>

Part 1

e-----------------------------------------------------------------------
B-----------------------------------------------------------------------
G---0-------0-2-5-4~------------------0-------0-2-5-4~------------------
D-----------------------------------------------------------------------
A-----------------------------------------------------------------------
E-----------------------------------------------------------------------


e-----------------------------------------------------------------------
B---------------------------8-------------------------------------------
G---------5---5---7---7/9-----9~----------------------------------------
D---5-5h7---------------------------------------------------------------
A-----------------------------------------------------------------------
E-----------------------------------------------------------------------


e-----------------------------------------------------------------------
B-------------------------------4/5-5~----------------------------------
G---7h9-7~---\-5-5~-----------------------------------------------------
D-----------------------6/7-5-------------------------------------------
A-----------------------------------------------------------------------
E-----------------------------------------------------------------------