Showing posts with label beatles. Show all posts
Showing posts with label beatles. Show all posts

20171125

THE BEATLES NO REPLY TAB (INSTRUMENTAL GUITAR COVER BY ERIC)


The Beatles - No Reply instrumental guitar cover played by Eric
Download the TAB below.



THE BEATLES NO REPLY INSTRUMENTAL TAB

GP5 + GP6 + PDF >>

Part 1

e-----------------------------------------------------------------------
B-----5-6-5-------------6-5---------------------------------------------
G-----------7-5-------------7-5-4~----------------5---------------------
D---------------7~--------------------------7-5-7---7-5~----------------
A-----------------------------------------------------------------------
E-----------------------------------------------------------------------


e-----------------------------------------------------------------------
B-----5-6-5-------------6-5-----------------5---------------------------
G-----------7-5-------------7-5-4~--------------7-5~--------------------
D---------------7~------------------------------------------------------
A-----------------------------------------------------------------------
E-----------------------------------------------------------------------


e-----------3-3-3-5~------------------------3-3-3-5~--------------------
B-----------5-5-5-5~------------------------5-5-5-5~--------------------
G-----------------------------------------------------------------------
D-----------------------------------------------------------------------
A-----------------------------------------------------------------------
E-----------------------------------------------------------------------

20151205

KLAUS SCHINDLER YESTERDAY TAB (FINGERSTYLE COVER OF THE BEATLES SONG)

Klaus Schindler plays a very nice and easy fingerstyle guitar cover of Yesterday.
Standard tuning.
See the TAB under the video.



KLAUS SCHINDLER YESTERDAY TAB

GP5 + GP6 + PDF >>

Part 1

e-------------------------------------------0---2---4---5---7---8-------
B---3---1---1-----------------------------------------------------------
G---0-----------0-------------------------------------------------------
D-------------------2---------------------------------------------------
A---3-----------------------3-------2-----------------------------------
E---------------------------------------------------0-------------------


e---7-----------5---5-----------------------5---5---3---1---0-----------
B---------------------------------------------------------------3-------
G-------------------2-------0-----------5-----------0-------------------
D-----------------------------------3-----------------------------------
A---0-------0-----------------------------------------------------------
E-----------------------------------------------------------------------


e---1-----------0---0-----------------------0---------------------------
B-------------------1-------3-------1-------0-------3-------------------
G-----------0---------------0-------2---------------2-------2-----------
D-----------------------------------------------------------------------
A---3---------------3-------2-------0-----------------------------------
E-------------------------------------------3-------2-------------------


20151030

DAVID LOCKE IMAGINE TAB (INSTRUMENTAL COVER OF JOHN LENNON'S SONG)


David Locke plays a smooth instrumental guitar cover of John Lennon's Imagine.
See the TAB under the video.



DAVID LOCKE IMAGINE TAB

PDF >>

Part 1

e-----------------------------------------------------------------------
B-----------------------------------------------------------------------
G-----------------------------------------------------------------------
D-----5---5~-----7/9---9-\-7~-------------------------------------------
A---7---7---------------------------------------------------------------
E-----------------------------------------------------------------------


e-----------------------------------------------------------------------
B-----------------------------------------------------------------------
G-----------------------------------------------------------------------
D----5---5.--5~-----7/9---9--\--7~--------------------------------------
A---x--7----------------------------------------------------------------
E-----------------------------------------------------------------------


e-----------------------------------------------------------------------
B-----------------------------------------------------------------------
G-----------------------------------------------------------------------
D----5-5.----5~-----7/9---9-\-7~----------------------------------------
A---x------7------------------------------------------------------------
E-----------------------------------------------------------------------



20150916

HANSEL PETHIG AND I LOVE HER TAB (FINGERSTYLE GUITAR COVER)

Hansel Pethig plays And I Love Her by The Beatles.
Nice fingerstyle guitar cover.
Download the Guitar Pro Tab below.



HANSEL PETHIG AND I LOVE HER TAB

GP5 + GP6 + PDF >>

Intro

e--------------------0---0-------0--------------------------------------
B--------------1-----1---1------1---------------------------------------
G--------------2-----2---2-----2----------------------------------------
D------5-4-2-------2---2-------------2----5-4---------------------------
A---/5-----0-----0---------0-------0---/5-------------------------------
E-----------------------------------------------------------------------


e-------0-----0---0-------0---------------------------------------------
B-------0-----0---0------0----------------------------------------------
G-------0-----0---0-----0-----------------------------------------------
D---2------------------------------5-4----------------------------------
A-----------2---2-------------2-/5--------------------------------------
E---0-----0---------0-------0-------------------------------------------


Verse 1

e-------------------2-0---3---------------------------------------------
B-----------0-1-----0-----0---0-----------------------------------------
G-------2-2-------0-0-------0---0---------------------------------------
D---2---2-------2-------2---------2-------------------------------------
A---0-------0-----------------------------------------------------------
E-------------------0---------------------------------------------------


20150308

PHIL MCGARRICK ELEANOR RIGBY TAB (HANK MARVIN VERSION)

Phil McGarrick plays an instrumental version of Eleanor Rigby (The Beatles)
This instrumental version was arranged originally by Hank Marvin.
See the TAB under the video.



PHIL MCGARRICK ELEANOR RIGBY TAB

PDF >>

Part 1

e-----------------------------------------------------------------------
B-8h10~---10~-------8h10~---10~-------13~-----12~---------8h10~---10~---
G-----------------------------------------------------------------------
D-----------------------------------------------------------------------
A-----------------------------------------------------------------------
E-----------------------------------------------------------------------



Part 2

e-----------------------------------------------------------------------
B------------------------5-8~---7-5-7---5h7p5---5~----------------------
G-5-7-7/9-5'---------5-7----------------------7------7-5-7~-------------
D-------------7~--------------------------------------------------------
A-----------------------------------------------------------------------
E-----------------------------------------------------------------------


e-----------------------------------------------------------------------
B-----5-6.---5----------------------------------------------------------
G-5-7---7.--------------------------------------------------------------
D-----------------------------------------------------------------------
A-----------------------------------------------------------------------
E-----------------------------------------------------------------------


20140311

YESTERDAY TAB (FINGERSTYLE COVER BY KIMIYOSHI AKIYAMA)

Smooth fingerstyle guitar cover of Yesterday played by Kimiyoshi Akiyama.
Just a single classical guitar and a brilliant sound.
See the TAB under the video.



YESTERDAY FINGERSTYLE TAB

GP5 + GP6 + PDF >> 

Part 1

e-------------5-------5-------------------------5-------5---------------
B---------8---------------8-----------------8---------------8-----------
G-----7---------------------7-----------5---------------------5---------
D-5---------------------------------5-----------------------------------
A-----------------------------------------------------------------------
E-----------------------------------------------------------------------


e-------------5-------5---------------------------5---------------------
B---------8---------------8-----------------8---------------------------
G-----7---------------------7-----------5-------------------------------
D-5---------------------------------5-----------------------------------
A-----------------------------------------------------------------------
E-----------------------------------------------------------------------


Part 2

e-5---3---3------------------------------------9---11---12---14---15----
B-0-------------------0-------------------12----------------------------
G-0---------------0-----------0-------9---------------------------------
D-------------0------------------------------------9---------13---------
A---------------------------------9-------------------------------------
E-----------------------------------------------------------------------


20131021

LET IT BE SOLO TAB (3 VERSION GUITAR COVER BY JUN626HYPER)

JUN626HYPER plays a great medley of The Beatles - Let It Be guitar solos.
The original video title says: Let it be guitar solo (3 version cover)
Single Version ~ Anthology 3 Version ~ Album Version (Mid and Ending Solo)
See the TAB under the video.


LET IT BE SOLO TAB

GP5 + GP6 + PDF >>

Solo 1

e-----------------------------------------------------------------------
B-----------------------------------------------------------------------
G-----------------------------------------------------------------------
D-----------------------------------------------5---7p5-----------------
A-------3---3---5(7)(5)-3---5---5-------3-5/7-----------7\5-3-----------
E---3h5-----------------------------3h5---------------------------------


e-----------------------------------------------------------------------
B-------------------------8-10p8----------------------------------------
G-------------------5-7/9--------9\7-5---7p5----------------------------
D-------5-5---5---7--------------------------7-5------------------------
A---5/7--------------------------------------------7-5---3--------------
E-----------------------------------------------------------------------


e-----------------------------------------------------------------------
B--------------------------------------------------8---10p8-------------
G-----------------------7/9.---7-5h7---------7/9------------9\7-5-------
D-------2-------5/7---5--------------7---5h7----------------------------
A-----------------------------------------------------------------------
E---3h5-----3/5---------------------------------------------------------