Showing posts with label billy idol. Show all posts
Showing posts with label billy idol. Show all posts

20160201

IN THE SUMMERTIME SLASH SOLO TAB (BILLY IDOL, SLASH, DEREK SHERINIAN VERSION)

Slash plays a great guitar solo in this song about 1:25.
In the summertime originally by Mungo Jerry.
See the solo tab under the video.



IN THE SUMMERTIME SLASH SOLO TAB

PDF >>

e----------12-----------------------------------------------------------
B--------12--15.---17~-------17p15--14-p12------------------------------
G---12h13-------------------------16------14--12h13~--------------------
D-----------------------------------------------------------------------
A-----------------------------------------------------------------------
E-----------------------------------------------------------------------


e----------12-----------------------------------------------------------
B--------12--15.--17~----17(20)----(17)-12----15-(15)(14)p12----12------
G---12h13---------------------------------14----------------14----------
D-----------------------------------------------------------------------
A-----------------------------------------------------------------------
E-----------------------------------------------------------------------


e-----------------------------------------------------------------------
B--------12---14---12-------12------------------------------------------
G---12h13---13---13---11/13---13\11p9-11--9----9------------------------
D------------------------------------------11---------------------------
A-----------------------------------------------------------------------
E-----------------------------------------------------------------------


20131226

BILLY IDOL RUN RUDOLPH RUN TAB

There is a cool song on Billy Idol's christmas album (Happy Holidays) called  
Run Rudolph Run. Cool Chuck Berry style guitar solos ...
See the TAB below.



BILLY IDOL RUN RUDOLPH RUN TAB

PDF >>

Intro

e------7-7-7-7-7--------------------------------------------------------
B------7-7-7-7-7-9-7-----7-7-7-7-7-7------------------------------------
G-/8-------------9-7h8---7-7-7-7-7-8------------------------------------
D----------------------9-------------9----------------------------------
A-----------------------------------------------------------------------
E-----------------------------------------------------------------------


e---------7-7---------7---------7-------7-10-10'------------------------
B---------7-7-7-------7-7-------7-------7-9--9'-------------------------
G-9(11)-------9(11)-----9(11)-----9(11)---------------------------------
D-----------------------------------------------------------------------
A-----------------------------------------------------------------------
E-----------------------------------------------------------------------



e-----------------------------------------------------------------------
B-----------------------------------------------------------------------
G-----------------------------------------------------------------------
D-9-9-11-9-9-9-11-9--9-9-11-9-9-9-11-9----------------------------------
A-7-7-7--7-7-7-7--7--7-7-7--7-7-7-7--7----------------------------------
E-----------------------------------------------------------------------
  x x x  x x x x  x  x x x  x x x x  x


e-----------------------------------------------------------------------
B-----------------------------------------------------------------------
G-----------------------------------------------------------------------
D-----------------------------------------------------------------------
A-9-9-11-9-9-9-11-9--9-9-11-9-9-9-11-9----------------------------------
E-7-7-7--7-7-7-7--7--7-7-7--7-7-7-7--7----------------------------------
  x x x  x x x x  x  x x x  x x x x  x

20131209

BILLY IDOL LET IT SNOW TAB


Billy Idol made a cool X'mas album named Happy Holidays a couple of years ago.
Let it snow is one of the cool songs. Brian Tichy plays a nice guitar solo in the middle. See the chords and the solo TAB below. CAPO on the 8th fret.



BILLY IDOL LET IT SNOW TAB                                                              

PDF >>

Chords

  F       C7'    'Fdim'     Gm    'Gm maj7'    D7       G7     C7
e-----------------------------------------------------------------------
B-10------11------9---------11------11------------------12--------------
G-10------9-------7---------12------11---------11-------10-----9--------
D-10------8-------9---------12------12---------10-------12-----8--------
A-8-------10------8---------10------10---------12-------10-----10-------
E---------8------------------------------------10--------------8--------




Nice intro           (CAPO on the 8th)

e----------------8-----------------------------8------------------------
B-------------10-----10---------------------10-----10-------------------
G--------12-------------12-------------12-------------12----------------
D-----15---------------------15-----15---------------------15-----------
A-8-----------------------------8---------------------------------------
E-----------------------------------------------------------------------


e----------------8-----------------------------8------------------------
B-------------10-----10---------------------10-----10-------------------
G--------12-------------12-------------12-------------12----------------
D-----15---------------------15-----15---------------------15-----------
A-8-----------------------------8---------------------------------------
E-----------------------------------------------------------------------


20121223

BILLY IDOL WINTER WONDERLAND TAB (SOLOS)

Billy Idol's awesome version of Winter Wonderland with brilliant guitar solo parts played by Brian Tichy. TAB under the video.

MERRY X'MAS EVERYONE! 


BILLY IDOL WINTER WONDERLAND TAB

PDF >>

Intro

e------------13--------------------------10-----------------------------
B---13(15)------(15).--13~-------9(11)------(11).--9~-------------------
G-----------------------------------------------------------------------
D-----------------------------------------------------------------------
A-----------------------------------------------------------------------
E-----------------------------------------------------------------------


e-----------------------------------------------------------------------
B------------8-8---11---------------------------------------------------
G---10(12)------------10---10-10-----8~---------------------------------
D-----------------------------------------------------------------------
A-----------------------------------------------------------------------
E-----------------------------------------------------------------------


Verse 1

e-----------------------------------------------------------------------
B-------13-11~--------------13-11~-------/11.--13-11~-------------13-11~
G-/12.----------------/12.----------------------------------/13.--------
D-----------------------------------------------------------------------
A-----------------------------------------------------------------------
E-----------------------------------------------------------------------


BILLY IDOL JINGLE BELL ROCK TAB

A cool version of Jingle Bell Rock by BILLY IDOL

HAPPY X'MAS EVERYONE!!!
 


SOLO PART ON GUITAR


BILLY IDOL JINGLE BELL ROCK TAB

PDF >>

Intro

e------8.--8-8---7.--7-7---12--15-8--10--10(11)--10--8------8-----------
B------8.--8-8---8.--8-8---13-----8--10--10(11)--10--8--10--8-----------
G-/9---9.--9-9---9.--9-9--------------------------------10--8h9---------
D-----------------------------------------------------------------------
A-----------------------------------------------------------------------
E-----------------------------------------------------------------------


Verse chords

  C                       Dm          G7  Dm  G7  Dm      G5#

e-------------------------------------3-------3-----------3-3---3-3-----
B-5---5---5---5---5---5---6---6---6---6---6---6---6---6---4-4---4-4-----
G-5---5---5---5---5---5---7---7---7---4---7---4---7---7---4-4---4-4-----
D-5---5---5---5---5---5---7---7---7---5---7---5---7---7---5-5---5-5-----
A-3---3---3---3---3---3---5---5---5-------5-------5---5-----------------
E-----------------------------------------------------------------------

  C                       Dm          G7  Dm  G7  D   G7  C

e-------------------------------------3-------3-------3-----------------
B-5---5---5---5---5---5---6---6---6---6---6---6---7---6---5---5---------
G-5---5---5---5---5---5---7---7---7---4---7---4---7---4---5---5---------
D-5---5---5---5---5---5---7---7---7---5---7---5---7---5---5---5---------
A-3---3---3---3---3---3---5---5---5-------5-------5-------3---3---------
E-----------------------------------------------------------------------