Showing posts with label blaze foley. Show all posts
Showing posts with label blaze foley. Show all posts

20170928

BLAZE FOLEY IF I COULD ONLY FLY TAB (GUITAR PRO)


Blaze Foley plays If I Could Only Fly. One single guitar and Blaze Foley.
Half-step down tuning
Download the tab below.



BLAZE FOLEY IF I COULD ONLY FLY TAB

GP5 + GP6 + PDF >>

Intro

eb----------------------------------------------------------------------
Bb-------1-----------1-------------------0-----------0------------------
Gb-----------0-----------0-------0-----------0-----------0-------0------
Db---------------2h3---------3-------------------0h2--p0----------------
Ab---3-------------------------------------------------------0h2--------
Eb-----------------------------------3----------------------------------


eb---------------------------------------------------0------------------
Bb-------1---------------1---------------1---------------1-------1------
Gb-----------0---------------2---------------0---------------0----------
Db---------------0h3-------------3---------------2----------------------
Ab---3-------------------------------3----------------------------------
Eb-------------------1--------------------------------------------------


eb----------------------------------------------------------------------
Bb-------1-----------1-------------------0-----------0------------------
Gb-----------0-----------0-------0-----------0-----------0-------0------
Db---------------2h3---------3-------------------0h2--p0----------------
Ab---3-------------------------------------------------------0h2--------
Eb-----------------------------------3----------------------------------


20160625

BLAZE FOLEY CLAY PIGEONS TAB (RARE LIVE)


Blaze Foley sings Clay Pigeons on the front porch.
He is using standard tuning with Capo on the 2nd fret.
See the TAB under the video.



BLAZE FOLEY CLAY PIGEONS TAB

GP5 + GP6 + PDF >>

Intro                  Capo on the 2nd

e-----------------------------------------------------------------------
B---0---------0-----1p0-------0-----1---------1-----3p1-------1---------
G---------0---------------2---------------0---------------0-------------
D-------0-------0-------0-------0-------2-------2-------2-------2p0-----
A-----------------------------------3---------------3-------------------
E---3-------3-------3-------3---------------3---------------3-----------


e-------------------------------------------------3---------------------
B-------------0-----------3-------------------0---------------0---------
G---------0-------2-----------2---0-------------------------------0-----
D-------0-------0-------0-------0-------0-------0-------0-------0-------
A-----------------------------------------------------------------------
E---3-------3-------2-------2-------3-------3-------3-------3-----------


Verse

e-----------------------------------------------------------------------
B-------------0---------------0-----1---------1---------------1---------
G-----------------0---------------0-------0-------0---------------0-----
D-------0-------0-------0-------0-------2-------2-------2-------2-------
A-----------------------------------3---------------3-------------------
E---3-------3-------3-------3---------------3---------------3-----------