Showing posts with label bohemian rhapsody. Show all posts
Showing posts with label bohemian rhapsody. Show all posts

20160602

DR VIOSSY BOHEMIAN RHAPSODY FOR SOLO GUITAR TAB (QUEEN)

Dr. Viossy plays Bohemian Rhapsody for solo guitar. Brilliant fingerstyle arrangement!
It's possible to play this piece with a normal 6 string guitar as the low B string (7th string) is not being used too much. Original song by Freddie Mercury (Queen)
See the TAB under the video.


DR VIOSSY BOHEMIAN RHAPSODY FOR SOLO GUITAR TAB

GP6 + GP5 + PDF >>

e-----------------------------------------------------------------------
B---10.--10.--10.--10-------10---\--------------------------------------
G---11.--11.--11.--11-------11---\--------------------------------------
D---14.--14.--14.--14-------14---\--------------------------------------
A-----------------------------------------------------------------------
E-----------------------------------------------------------------------
B-----------------------------------------------------------------------


e-----------------------------------------------------------------------
B---10.--10---10.--10---10-7--------------------------------------------
G---11.--11---11.--11---11-8--------------------------------------------
D---13.--13---14.--13---11-9--------------------------------------------
A-----------------------------------------------------------------------
E-----------------------------------------------------------------------
B-----------------------------------------------------------------------


e-----------------------------------------------------------------------
B---9---9---9---9h10---9------------------------------------------------
G---9---9---9---9h11---9------------------------------------------------
D-----------------------------------------------------------------------
A-----------------------------------------------------------------------
E--------------------------<12>---<12>----------------------------------
B-----------------------------------------------------------------------


20130806

BOHEMIAN RHAPSODY TAB (FINGERSTYLE COVER BY EDGAR CRUZ)

Great fingerstyle arrangement of Queen's Bohemian Rhapsody.
The original video title says: 'Bohemian Rhapsody - for solo guitar'
See the TAB below.



BOHEMIAN RHAPSODY FINGERSTYLE TAB                                  

PDF >>

Part 1

e-5---5---5---5---5---5-----------5---5---5---5-----5-2-----------------
B-7---7---7---7---7---7-----------7---7---7---7-----7-4-----------------
G-9---9---9---9---9---9-----------8---8---9---8-----6-4-----------------
D-----------------------------------------------------------------------
A-----------------------------------------------------------------------
E-----------------------------------------------------------------------


e-4---4---4.--5-----------4-----------5---5---5---5.--------------------
B-5---5---5.--7-----------5-----------5---5---7---5.--7---5-------------
G-7---7---7.--7-----------7-----------6---6---7---6.--7---6-------------
D-----------------------------------------------------9---7-------------
A-----------------------------7---7---0---------------------------------
E-----------------------------------------------------------------------