Showing posts with label burns ernst. Show all posts
Showing posts with label burns ernst. Show all posts

20171110

BURNS ERNST HELP ME MAKE IT THROUGH THE NIGHT TAB (INSTRUMENTAL GUITAR COVER)

Kris Kristofferson - Help Me Make It Through The Night
Instrumental guitar cover played by Burns Ernst
Download the TAB below



BURNS ERNST HELP ME MAKE IT THROUGH THE NIGHT TAB

GP5 + GP6 + PDF >>

Part 1

e-----------------------------------------------------------------------
B----------5---6-5-----3---5.-------------------------------------------
G------5----------------------------------------------------------------
D------------------------------5~---------------------------------------
A-----------------------------------------------------------------------
E-----------------------------------------------------------------------


e-----------------------------------------------------------------------
B------5-5---5h6---5---3------------------------------------------------
G------------------------5---5~-----------------------------------------
D-----------------------------------------------------------------------
A-----------------------------------------------------------------------
E-----------------------------------------------------------------------


e-----------------------------------------------------------------------
B------3---5-5/6---5---3-6----------------------------------------------
G------------------------------4~---------------------------------------
D-----------------------------------------------------------------------
A-----------------------------------------------------------------------
E-----------------------------------------------------------------------


20170520

BURNS ERNST COUNTRY ROADS TAB (INSTRUMENTAL GUITAR COVER)

Burns Ernst plays (Take Me Home) Country Roads with his Fender Telecaster.
Great instrumental cover of the old John Denver song.
Download the Guitar Pro 6 + GP5 and PDF files below.



BURNS ERNST COUNTRY ROADS TAB

GP5 + GP6 + PDF >>

Verse

e-----------------------------------------------------------------------
B-----------------------------------------------------------------------
G-----------------------------------------------------------------------
D-----------------------------------------------------------------------
A-----------------------------------------------------0-----------------
E-----------0---0-0h2-------0---------------2---0-2---------------------


e-----------------------------------------------------------------------
B-----------------------------------------------------------------------
G-----------------------------------------------------------------------
D-----------------------------------------------------------------------
A-----------2---2-2h4-------2-------------------------------------------
E-----------------------------------2---2-2-----0---2--/5-5-------------


e-----------------------------------------------------------------------
B-----------------------------------------------------------------------
G-----------------------------------------------------------------------
D-----------------------------------------------------------------------
A---------------------------------------0-0-----4---4-------------------
E-----------0---0-0h2-------0-------2-----------------------------------



20170430

MARK KNOPFLER THE LONG ROAD TAB (BURNS ERNST INSTRUMENTAL GUITAR COVER)

The Long Road (Mark Knopfler cover) played by Burns Ernst.
Easy instrumental guitar cover.
Download the Guitar Pro 6, GP5 and PDF files below.



MARK KNOPFLER THE LONG ROAD TAB

GP5 + GP6 + PDF >>

Part 1

e-----------------------------------------------------------------------
B---------------3---------------3---------------------------------------
G---4~------2-----4~--------2-----4~------------------------------------
D-----------------------------------------------------------------------
A-----------------------------------------------------------------------
E-----------------------------------------------------------------------


e-----------------------------------------------------------------------
B---------------3---------------3---------------------------------------
G---4~------2-----4~--------2-----4~------------------------------------
D-----------------------------------------------------------------------
A-----------------------------------------------------------------------
E-----------------------------------------------------------------------


e-----------------------------------------------------------------------
B-----0-1-------------------------------0-------------------------------
G-------------------------------------2---------------------------------
D---0-------2~----------------------2-------0---------------------------
A-----------------------------------------------------------------------
E-----------------------------------------------------------------------


20170325

BURNS ERNST BLUEING TAB


Burns Ernst plays an instrumental guitar cover of Blueing.
The original song was composed and played by Matti Luhtala.
Download the Guitar Pro 6 and PDF files below.



BURNS ERNST BLUEING TAB

GP6 + PDF >>

Intro

e-----------------------------------------------------------------------
B-----------------3---------------3-------------------------------------
G---4---------2-4---4~--------2-4---4~--------2-4-2---------------------
D---------------------------------------------------2-------------------
A-----------------------------------------------------------------------
E-----------------------------------------------------------------------


Verse

e-------------/7--7--7--5.-----3-------2h3-2----------------------------
B------0---1----------------5----------------3---------3----------------
G--2-------------------------------------------4~---------4.------------
D------------------------------------------------------------4--2~------
A-----------------------------------------------------------------------
E-----------------------------------------------------------------------


e--------------------------------------------------------3--2-----------
B--------------------------------------------------------------3--0-----
G-----------------------------------------------------------------------
D---------------5--5--5--5--5/7--4-------4h5-4-0------------------------
A--0---2---2h3-----------------------------------2----------------------
E-----------------------------------------------------------------------


20170119

BURNS ERNST HOUSE OF THE RISING SUN TAB (INSTRUMENTAL GUITAR COVER)

Burns Ernst plays his own instrumental guitar cover of House of the Rising Sun.
Original song by The Animals.
See the TAB under the video.



BURNS ERNST HOUSE OF THE RISING SUN TAB

PDF >>

Part 1

 Am / C / D / F /
 Am / E / Am / E /

      Am          C            D         F
e-----------------------------------------------------------------------
B-----------------------------------------------------------------------
G-----------------------------------------------------------------------
D-----------------------------------------------------------------------
A-----0---------2-3---------/7-5---0-----0------------------------------
E---0-------------------------------------------------------------------

      Am          C            E
e-----------------------------------------------------------------------
B-----------------------------------------------------------------------
G-----------------------------------------------------------------------
D---7-7~--------7-5~----------------------------------------------------
A--------------------------7-5-7~---------------------------------------
E-----------------------------------------------------------------------

         Am          C             D             F
e-----------------------------------------------------------------------
B-----------------------------------------------------------------------
G-----------------------------------------------------------------------
D---/7-7-7~--------7-5-\-2~------2-0------------------------------------
A--------------------------------------0-----0-0-3~---------------------
E-----------------------------------------------------------------------

20160818

BURNS ERNST WONDERFUL TONIGHT TAB (INSTRUMENTAL GUITAR COVER)

Burst Ernst plays a nice instrumental guitar cover of Wonderful Tonight
Original tune by Eric Clapton
Download the TAB below



BURNS ERNST WONDERFUL TONIGHT TAB

GP5 + GP6 + PDF >>

Intro

e-----------------------------------------------------------------------
B------10(12)-(10)--8--10~-----------10(12)-(10)--8---------------------
G---7-----------------------------7------------------9~-----------------
D-----------------------------------------------------------------------
A-----------------------------------------------------------------------
E-----------------------------------------------------------------------


e-----------------------5-/-7-/--8-/-12-\-10~---------------------------
B------10(12)-(10)--8---7-/-8-/-10-/-13-\-12~---------------------------
G---7-------------------------------------------------------------------
D-----------------------------------------------------------------------
A-----------------------------------------------------------------------
E-----------------------------------------------------------------------


e-----------------------------------------------------------------------
B------10(12)-(10)--8--10~-----------10(12)-(10)---8--------------------
G---7-----------------------------7------------------9~-----------------
D-----------------------------------------------------------------------
A-----------------------------------------------------------------------
E-----------------------------------------------------------------------


20160705

BURNS ERNST VISIONS TAB (CLIFF RICHARD INSTRUMENTAL COVER)

Burns Ernst plays Visions by Cliff Richard.
Very nice instrumental guitar cover.
See the TAB under video.



BURNS ERNST VISIONS TAB

GP5 + GP6 + PDF >>

Part 1

e-----------------------------------------------------------------------
B-----------------------------------------------------------------------
G-----------------------------------------------------------------------
D----------------------------4-------4/--7~-----------------------------
A---4--4-------4-2~--------------5--------------------------------------
E-----------------------------------------------------------------------


e-----------------------------------------------------------------------
B-----------------------------------------------------------------------
G-----------------------------------2---1-------------------------------
D---4--0--------2---------------1----------4-2--------------------------
A------------------4--------2-------------------------------------------
E-----------------------------------------------------------------------


e-----------------------------------------------------------------------
B-----------------------------------------------------------------------
G-----------------------------------------------------------------------
D---0-------------------------------------------------------------------
A-----4---4~------4-2------2h4--2-0~------------------------------------
E-----------------------------------------------------------------------


20151227

BURNS ERNST SPANISH HARLEM TAB

Burns Ernst plays Spanish Harlem with a nice Fender Stratocaster.
Nice instrumental guitar cover.
See the TAB under the video.



BURNS ERNST SPANISH HARLEM TAB

PDF >>

Part 1

e-----------------------------------------------------------------------
B-----------------------------------------------------------------------
G-----------------------4---6---4h6p4-----------------------------------
D---4---4---5-5/7---7-----------------7~--------------------------------
A-----------------------------------------------------------------------
E-----------------------------------------------------------------------


e-----------------------------------------------------------------------
B-----------------------------------------------------------------------
G-----------------------4---6---4h6p4-----------------------------------
D---4---4---5-5/7---7-----------------7~--------------------------------
A-----------------------------------------------------------------------
E-----------------------------------------------------------------------


e-----------------------------------------------------------------------
B-----5-----------5---------5-----5-------------------------------------
G---------7---4-----7---4-----7-4---7---4-------------------------------
D-----------------------------------------------------------------------
A-----------------------------------------------------------------------
E-----------------------------------------------------------------------



20140710

BURNS ERNST THE LONELY SHEPHERD TAB (JAMES LAST)


Burns Ernst plays a nice instrumental guitar cover of The Lonely Shepherd tune
(written by James Last) there is a 2nd guitar line by 3:00.
See the TAB under the video.



THE LONELY SHEPHERD TAB

GP5 + GP6 + PDF >>

Part 1

e-----------------------------9---14-12-14------------------------------
B-----------9---9---10---10---------------------------------------------
G-11---11---------------------------------------------------------------
D-----------------------------------------------------------------------
A-----------------------------------------------------------------------
E-----------------------------------------------------------------------


e-12-10-12--------------------------------------------------------------
B------------------------12-(14)---(14)---------------------------------
G-----------------------------------------------------------------------
D-----------------------------------------------------------------------
A-----------------------------------------------------------------------
E-----------------------------------------------------------------------


e-----------------------------9---14-12-14------------------------------
B-----------9---9---10---10---------------------------------------------
G-11---11---------------------------------------------------------------
D-----------------------------------------------------------------------
A-----------------------------------------------------------------------
E-----------------------------------------------------------------------


20140310

SUMMER HOLIDAY TAB (COVER BY BURNS ERNST)


Burns Ernst plays a solo guitar cover of Summer Holiday by Cliff Richard.
He uses and old, red Fender Stratocaster.
See the TAB under the video.



SUMMER HOLIDAY TAB

PDF >>

Part 1

e-----------------------------------------------------------------------
B-----------------------------------------------------------------------
G-------4-----2---1-------------------1---------------------------------
D-------------------4---2---------4-----4---2---------------------------
A-2-------------------------------------------4-------------------------
E-----------------------------------------------------------------------


e-----------------------------------------------------------------------
B-----------------------------------------------------------------------
G-----4-2---1-----------1-2---------------------------------------------
D-------------4---2-----------4-----------------------------------------
A-2.--------------------------------------------------------------------
E-----------------------------------------------------------------------


e-----------------------------------------------------------------------
B-----------------------------------------------------------------------
G-------4-----2---1-------------------1---------------------------------
D-------------------4---2---------4-----4---2-----2---------------------
A-2-------------------------------------------4-------------------------
E-----------------------------------------------------------------------


20130119

SPOTNICKS JOHNNY GUITAR TAB (COVER BY BURNS ERNST)

BurnsErnst plays a perfect cover of the legendary Johnny Guitar by The Spotnicks.
He is using an old Fender Stratocaster that sounds cool.
Use the tremolo bar to make it more exciting. TAB below.



SPOTNICKS JOHNNY GUITAR TAB

PDF >>

Intro

e-------------0--------0-1/3------1-1-3-1h3p1-0-------------------------
B-----0-0-1-1--------3--------------------------------------------------
G-2-2-------------------------------------------------------------------
D-----------------------------------------------------------------------
A-----------------------------------------------------------------------
E-----------------------------------------------------------------------


e-------------0--------0-1/5------3\---0--------------------------------
B-----0-0-1-1--------3--------------------------------------------------
G-2-2-------------------------------------------------------------------
D-----------------------------------------------------------------------
A-----------------------------------------------------------------------
E-----------------------------------------------------------------------


e-0-5-7-8--8-8-8--8--------8-7-5-8--8-8-8--8--------8-7-5-8\---0--------
B-----------------------------------------------------------------------
G-----------------------------------------------------------------------
D-----------------------------------------------------------------------
A-----------------------------------------------------------------------
E-----------------------------------------------------------------------