Showing posts with label carlos. Show all posts
Showing posts with label carlos. Show all posts

20160803

SANTANA THE GAME OF LOVE FT. MICHELLE BRANCH TAB (GUITAR SOLO)

Carlos Santana and Michelle Branch play The Game of Love.
There is a great Santana guitar solo about 2:20.
See the Solo TAB under the video.



SANTANA THE GAME OF LOVE SOLO TAB

PDF >>

 ~ 2:20

e-----------------------------------------------------------------------
B------15.-------17(19)-----(19)(19)(19)(19)(19)(19)(19)(19)(19)(19)(19)
G---/16-----------------------------------------------------------------
D-----------------------------------------------------------------------
A-----------------------------------------------------------------------
E-----------------------------------------------------------------------


e-----------------------------------------------------------------------
B---(19)(19)(19)(19)(19)---17(19)-----(19)(19).--17.--15.---------------
G-----------------------------------------------------------------------
D-----------------------------------------------------------------------
A-----------------------------------------------------------------------
E-----------------------------------------------------------------------


e--------------------------------------15.--14h15~----14----------------
B---17-15~----15~--------h17.------------------------------15.----------
G-----------------------------------------------------------------------
D-----------------------------------------------------------------------
A-----------------------------------------------------------------------
E-----------------------------------------------------------------------


20131209

CARLOS SANTANA REVELATIONS TAB (COVER BY STEVIE LAMONT)

Stevie Lamont plays a cool guitar cover of Santana's Revelations.
See the TAB under the video.



CARLOS SANTANA REVELATIONS TAB

PDF >>

Part 1

e-7h8p7--------------------------7h8p7----------------------------------
B-------5~-----------------------------5~-------------------------------
G-----------------------------------------------------------------------
D-----------------------------------------------------------------------
A-----------------------------------------------------------------------
E-----------------------------------------------------------------------


e-7h8p7.----------------------------------------------------------------
B-----------------------------------------------------------------------
G---------7/9---\7/9~~~-----------\7~-----------------------------------
D-----------------------------------------------------------------------
A-----------------------------------------------------------------------
E-----------------------------------------------------------------------


e---------------------5h6p5---------------------------------------------
B-------5~------6.----------8~------------------------------------------
G-5h7-----------------------------------7/9---\7/9~---------------------
D-----------------------------------------------------------------------
A-----------------------------------------------------------------------
E-----------------------------------------------------------------------


20130827

CARLOS SANTANA OYE COMO VA TAB



Carlos Santana - Oye Como Va guitar tab according to the album version.



CARLOS SANTANA OYE COMO VA TAB                  

PDF >>

Intro solo

e-5.---5-7-8-10.---7----------------------------------------------------
B--------------------8h10-----------------------------------------------
G-----------------------------------------------------------------------
D-----------------------------------------------------------------------
A-----------------------------------------------------------------------
E-----------------------------------------------------------------------


e-5.---5-7-8-10---7-----5-----------------------------------------------
B---------------------8-------------------------------------------------
G-------------------------7(8)(7)-5.------------------------------------
D-----------------------------------------------------------------------
A-----------------------------------------------------------------------
E-----------------------------------------------------------------------


20130804

CARLOS SANTANA I LOVE YOU MUCH TOO MUCH TAB

There is a short video how to play the main parts of I Love You Much Too Much.
This is a nice instrumental love song by Carlos Santana.
See the TAB below.



CARLOS SANTANA I LOVE YOU MUCH TOO MUCH TAB      

PDF >>

Part 1

e------7----------------------------------------------------------------
B------------10.---8-7-10~-------------\--------------------------------
G-----------------------------------------------------------------------
D-9.--------------------------------------------------------------------
A-----------------------------------------------------------------------
E-----------------------------------------------------------------------


e-----------------------------------------------------------------------
B------10-----9.---8-7-8~-----------------------------------------------
G-----------------------------------------------------------------------
D-9.--------------------------------------------------------------------
A-----------------------------------------------------------------------
E-----------------------------------------------------------------------


20130615

CARLOS SANTANA EL FAROL TAB AND GUITAR LESSON


Short guitar lesson how to play Carlos Santana - El Farol. (Supernatural album)
However in the video only the main parts of the song are shown, the TAB covers the complete album version.



CARLOS SANTANA EL FAROL TAB

PDF >>

Part 1

e-----------------------------------------------------------------------
B-13~------------------------13-12~-------------------------------------
G-----------------------------------------------------------------------
D-------------14-15~------------------------12h14~----------------------
A-----------------------------------------------------------------------
E-----------------------------------------------------------------------


e-----------------------------------------------------------------------
B-----------------------------------------------------------------------
G-14~------------------------------------14--13~------------------------
D--------------------------------12--15------------15-12h14---12h14p12--
A-------------15-17~---------14-----------------------------------------
E-----------------------------------------------------------------------


20130611

CARLOS SANTANA EUROPA TAB AND GUITAR LESSON


Short guitar lesson how to play Europa by Carlos Santana.
This lesson shows only the main parts.
See the TAB of the complete album version under the video.



CARLOS SANTANA EUROPA TAB

PDF >>

Part 1

e------8---10.---10/11---10.-----8--------------------------------------
B-8.-------------------------------11.---8h9~---------------------------
G-----------------------------------------------------------------------
D-----------------------------------------------------------------------
A-----------------------------------------------------------------------
E-----------------------------------------------------------------------


e------8-8h10-8~--------------------------------------------------------
B-9-11-----------------11.----------------------------------------------
G------------------------------10---/12~--------------------------------
D-----------------------------------------------------------------------
A-----------------------------------------------------------------------
E-----------------------------------------------------------------------


20130610

EUROPA ACOUSTIC TAB (COVER BY KZKW)


Exciting fingerstyle guitar cover of Santana's Europa played by KZ KW.
CAPO on the 2nd, TAB helps below.



EUROPA ACOUSTIC TAB

PDF >>

Part 1

e-----4-6-6/7-6-4-2-----------------------------------------------------
B-4.--------------------------------------------------------------------
G-----------------------------------------------------------------------
D-----------------------------------------------------------------------
A-----------------------------------------------------------------------
E-----------------------------------------------------------------------


e-----------------------------------2---------2-4-4h6-4---2-------------
B-5---------------------------5.----2-----4/5---------------2-----------
G-4-----------------------4---------3-----------------------------------
D-6-------------------6-------------2-----------------------------------
A-4---------------------------------4-----------------------------------
E---------x---2---2-----------------2-----------------------------------


20130330

CARLOS SANTANA MOONFLOWER TAB AND LESSON(FLOR D'LUNA)

Moonflower (Flor d'Luna) is a classic song by Carlos Santana from 1977.
There are many backing tracks available to play along.  
TAB helps below.



CARLOS SANTANA MOONFLOWER TAB (FLOR D'LUNA)        

PDF >>

Main Riff

e-----------------------------------------------------------------------
B------------15~------13----------------15--13--------------------------
G------14.---------------15-14~-----------------15.--14----(15)(14)-12~-
D-12--------------------------------------------------------------------
A-----------------------------------------------------------------------
E-----------------------------------------------------------------------


e-----------------------------------------------------------------------
B------------------------------------------------13~------------15~-----
G------------12------------14~--------14---15.------------15-14---------
D-14---15.-----------15-14----------------------------------------------
A-----------------------------------------------------------------------
E-----------------------------------------------------------------------


e-----------------------------------------------------------------------
B-----------------------------------------------------------------------
G-12--14--14h15--14.--12--12h14-------12--12h14.--14p12-------12--------
D---------------------------------15----------------------15------------
A-----------------------------------------------------------------------
E-----------------------------------------------------------------------


20121105

SANTANA CORAZON ESPINADO TAB (SOLOS)


Short lesson how to play the solo parts of Corazon Espinado by Santana. (feat. Mana)
See the TAB under the video.



CARLOS SANTANA CORAZON ESPINADO TAB


Intro solo

e--------------------------------7--------------------------------------
B----------------------------7-------11-----7---------------------------
G-------7----------------7--------------------9---7-9(11)-9(11)---------
D---7-9---9-7-9~--------------------------------------------------------
A-9---------------------------------------------------------------------
E-----------------------------------------------------------------------


e-----------------------------------------------------------------------
B-----------------------------------------------------------------------
G-(11)(9).---6.---7---9.------------------------------------------------
D-----------------------------------------------------------------------
A-----------------------------------------------------------------------
E-----------------------------------------------------------------------


e------7h10p7----7~--------------14---18(19)(18)'---14------------------
B-7h10--------10------------15-------------------------17---15----------
G-----------------------------------------------------------------------
D-----------------------------------------------------------------------
A-----------------------------------------------------------------------
E-----------------------------------------------------------------------