Showing posts with label christna perri. Show all posts
Showing posts with label christna perri. Show all posts

20161215

DHALIF ALI A THOUSAND YEARS TAB (INSTRUMENTAL GUITAR COVER OF CHRISTINA PERRI'S SONG)

Dhalif Ali (dhalif) plays an instrumental guitar cover of A Thousand Years.
The original song is played by Christina Perri.
Download the Guitar Pro Tab below.



DHALIF ALI A THOUSAND YEARS TAB

GP5 + GP6 + PDF >>

Verse

e-----------------------------------------------------------------------
B-----------------------------------------------------------------------
G-----------------------------------------------------------------------
D---8~----------------------8~----------10/12--\10--p8------------------
A---------------------------------------x-------------------------------
E-----------------------------------------------------------------------


e-----------------------------------------------------------------------
B-----------------------------------------------------------------------
G---------------------------------------8/10--p8\7----------------------
D---8~----------------------8~----------x-------------------------------
A-----------------------------------------------------------------------
E-----------------------------------------------------------------------


e-----------------------------------------------------------------------
B-----------------------------------------------------------------------
G----------------10--p8\7-----------------------------------------------
D---8------------x------------10----/12-----7~--/-8---------------------
A---------8h10~---------------------------------------------------------
E-----------------------------------------------------------------------


20140416

CHRISTINA PERRI A THOUSAND YEARS TAB (ACOUSTIC COVER BY NIJAY GABOY)

Nice acoustic guitar cover of 'Christina Perri - A Thousand Years' played by
Ni-jay Gaboy. In the video you can only see 1 beautiful acoustic guitar but on the record sometimes there are more lines. Use standard tuning with Capo on the 3rd.
See the TAB of the acoustic lines below.


A THOUSAND YEARS TAB

PDF >>

Part 1

e-----------------------------------------------------------------------
B-<15>-----------<15>-----------<15>------------------------------------
G-<15>-----------<15>-----------<15>-----------17~----------------------
D-<15>-----------<15>-----------<15>------------------------------------
A-----------------------------------------------------------------------
E-----------------------------------------------------------------------

GTR2
e--6--------------------------------------------------------------------
B--6-------------------------------------------6------------------------
G--3-------------------------------------------5------------------------
D--3--------------------------------------------------------------------
A--5--------------------------------------------------------------------
E--6-------------------------------------------5------------------------


e-----------------------------------------------------------------------
B-<15>-----------<15>-----------<15>------------------------------------
G-<15>-----------<15>-----------<15>-----------17~----------------------
D-<15>-----------<15>-----------<15>------------------------------------
A-----------------------------------------------------------------------
E-----------------------------------------------------------------------