Showing posts with label classical. Show all posts
Showing posts with label classical. Show all posts

20171120

LA PALOMA BLANCA TAB (CLASSICAL GUITAR COVER)


La Paloma Blanca classical guitar cover
Download the TAB below



LA PALOMA BLANCA TAB

GP5 + GP6 + PDF >>

Part 1

e---5-------5-------5-5-----5-------4-------4-------4-4-----4-----------
B---5-----5-----5---5-----5-5---5---5-----5-5---5---5-----5-5---5-------
G---6---------------6-----6-6---6---4-----4-4---4---4-----4-4---4-------
D-----------------------------------------------------------------------
A-----------------------------------------------------------------------
E---5---------------5---------------0---------------0-------------------


e---5-------5-------5-5-----5-------4-------4-------4-4-----4-----------
B---5-----5-5---5---5-5---5-5---5---5-----5-5---5---5-5---5-5---5-------
G---6-----6-6---6---6-6---6-6---6---4-----4-4---4---4-4---4-4---4-------
D-----------------------------------------------------------------------
A-----------------------------------------------------------------------
E---5---------------5---------------0---------------0-------------------


e---5-------x---0---0-----------------------0---2-----------------------
B---5-------x---------------2---------2--/3-----------------------------
G---6-------x-----------------------------------------------------------
D-------------------------2---------------------------------------------
A-------------------0---------------0-----------------------------------
E---5-------x-------------------0---------------------------------------


20170829

ANDRES SEGOVIA MEXICAN FOLKSONG TAB (GP6 + GP5 + PDF)


Andrés Segovia plays Mexican Folksong - brilliant classical guitar playing.
Download the TAB below.



ANDRES SEGOVIA MEXICAN FOLKSONG TAB

GP5 + GP6 + PDF >>

Part 1

e-----7--4--0--5--------0--4--------------------------------------------
B-----5--4--------7--4--0--5--------------------------------------------
G-----4-----7--6--5--4--------------------------------------------------
D--------------------------6--4-----------------------------------------
A--------------------------------7-p6--4--------------------------------
E-----0--------0--------0-----------------------------------------------


e-----0--0--4--7--4--0-----2--------------------------------------------
B-------------------------5---4--2--4-----------------------------------
G------------------------4-------------3-/4-----------------------------
D-----------------4--6--------------------------------------------------
A-----2--4--6--7--------2-----------------------------------------------
E-----0-----------------------------------------------------------------


e-----2--2--0--------0--2-/7------------------------9--\----------------
B-----4--4-----4--4-----0------------6--7--8--9----10--\----------------
G-----2--2--0--2--2-----2------------7--8--9--10--11---\----------------
D--------------4--4--2----------------------------9----\----------------
A-----2-----------------2-----------------------------------------------
E-----------------------------------------------------------------------


20170821

AUTUMN LEAVES TAB (CLASSICAL GUITAR COVER BY NATHALIE JOST)


Autumn Leaves classical guitar cover played by Nathalie Jost
Download the tab below.



AUTUMN LEAVES FINGERSTYLE TAB

GP6 + GP5 + PDF >>

Part 1

e-----------1----------------------------------0------------------------
B------0-1------------3---1--0--------------0---------------------------
G---2-------------2----------------0------2-----------------------------
D-------------0---------------------------------------------------------
A-----------------------------------------------------------------------
E------------------------------3-------3--------------------------------


e--------------0---------0----------------------------------------------
B-------1---0----0-------1-----------3----------------------------------
G--------------------2----------0-2-------------------------------------
D----------------------------3------------------------------------------
A---3-------2--------0--------------------------------------------------
E-----------------------------------------------------------------------


e-----------------------------------------------------------------------
B--------------3--------------------------------------------------------
G-------2--------2--1---------------------------------------------------
D-------------------------2---------------------------------------------
A-----------------------------------------------------------------------
E---1-------1---------0-------0--2-4------------------------------------


20170706

ANA VIDOVICH G MINOR SONATA GUITAR TAB (J. S. BACH)


Ana Vidovich plays Sonata No. 1 in G minor by J. S. Bach
The amazing part from 3:33 - 8:06 is transcribed.
Download the Guitar Pro 6 and PDF files below.



ANA VIDOVICH G MINOR SONATA GUITAR TAB

GP6 + PDF >>

Part 1

e-----------------------------------------------------------------------
B-------------------------------------------4---------------3-----------
G-------7.--7.--7.--7~--5-3-5---2.--3-------3-------2-------------------
D---------------------------------------5.--5.--5---5---3-1-3---0-------
A-----------------------------------------------------------------------
E-----------------------------------------------------------------------


e-------3-------3---3---1---1-------------------------------------------
B---4-------1-------------4-----3---4---------------------3.--3.--3-----
G-------------------3-------2-------0---------3-2-4h5---------0---------
D---1-------1-------0-------0-------------------------4-----------------
A-------------------------------------------3---0-----3-------1---------
E---------------------------------------3-------------------------------


e---------------------------6-------6---5---5---------------------------
B---3---1-------------------6-------------8---7-8---7---------8---------
G---------3-5---2.--3-------7-------5---------------5-8-7-5-------------
D---2-------4-------5---3-------0-------------------0-------8---7-5-----
A---0-------5-------------6-8-------6-----------------------------------
E-------------------3---------------------------------------------------


20161221

CELINO ROMERO LA PALOMA 2 TAB (CLASSICAL GUITAR COVER)

Celino Romero plays La Paloma 2, very nice classical guitar cover.
He is using Dropped D tuning.
Download the Guitar Pro tab below.



CELINO ROMERO LA PALOMA 2 TAB

GP5 + GP6 + PDF >>

e-----------------------------------------------------------------------
B-----------------------------------------------------------------------
G-----------------------------------------------------------------------
D------------0-----------------0-----------------0----------------------
A----------0-----0-----------0-----0-----------0-----0------------------
D--0-----------------0-----------------0--------------------------------
   x       x x   x   x       x x   x   x       x x   x


e-----------------------------------------------------------------------
B-----------------------------------------------------------------------
G-----------------------------------------------------------------------
D------------0---4-/-7~---------------------------------9~--------------
A----------0-----------------0-5.--0-------9---10-12--0-----------------
D--0-----------------0-----------------0--------------------------------
   x       x x


e-----------------------------------------------------------------------
B-----------------------------------------------------------------------
G-----------------------------------------------------------------------
D----11~---12-9-11----7---7\5--------------------------------<7>--------
A-------------------0---------------0-4.--7.-------------<7>------------
D--0-------------------------------------------<7>----------------------


20151122

ONCE UPON A TIME IN MEXICO SPANISH GUITAR INTRO TAB


Antonio Banderas, playing the guitar about 0:50.
Once Upon a Time in Mexico guitar intro.
See the TAB under the video.



ONCE UPON A TIME IN MEXICO SPANISH GUITAR INTRO TAB

PDF >>

Part 1

e-----------------------------------------------------------------------
B-----------5-----------5-----------5-----------------------------------
G-----6---6-6-----6---6-6-----6---6-6---7p6-7---------------------------
D---7---7---7---7---7---7---7---7---7-----------------------------------
A-----------0-----------0-----------0-----------------------------------
E-----------------------------------------------------------------------


e-----------------------------------------------------------------------
B-----------6-----------6---6/8-----6-6\5-5p3-5~------------------------
G-----7---7-7-----7---7-7-----------------------------------------------
D---7---7---7---7---7---7-----------------------------------------------
A-----------5-----------5-----------------------------------------------
E-----------------------------------------------------------------------


e-----------3-----------3---3/5-----------------------------------------
B-----5---5-5-----5---5-5-----------8-8p6-6p5-6~------------------------
G---5---5---5---5---5---5-----------------------------------------------
D-----------------------------------------------------------------------
A-----------------------------------------------------------------------
E-----------------------------------------------------------------------



20150615

THE LITTLE MERMAID PART OF YOUR WORLD TAB (CLASSICAL GUITAR COVER BY MARCO SAVELLI)


Marco Savelli covers The Little Mermaid - Part Of Your World.
Nice classical guitar arrangement. 
TAB under the video.


THE LITTLE MERMAID PART OF YOUR WORLD TAB

PDF >>

Part 1

e-----------------------------------------------------------------------
B---1-------1-------1-0---0-3-----0-3-1-----1-------1-0---0-3-----0-3---
G---2---0-2-----0-2---2-2-----0-2-----2-0-2-----0-2---2-2-----0-2-------
D---3---------3-------3---------------3-------3-------3-----------------
A-----------------------------------------------------------------------
E-----------------------------------------------------------------------


e-----------------------------------------------------------------------
B-------0-1-1---------0-1-3-3-----------0-1-1---0---1-0-1---3-3---------
G-----2-------------2---------------0-2-------------2---------------0---
D-----------------3---------------0---------------3---------------0-----
A---------------3---------------2-------------------------------2-------
E---1---------1-------1-------1-------1-------1-------1-------1---------


e---------------------------------0---0---------------0h2---------------
B---0-1-3-3---1-3-1---------0-1-3---------3-3-------1-----1-------------
G-----------------0-----------------0-------------0---------2-----------
D---------------0-----------------2---0-------0h2-------------0---------
A-------------2-----0---------0-3---------------------------------------
E---0-------0-----------------------------------------------------------


20150422

THE LORD OF THE RINGS ROHAN THEME TAB (CLASSICAL GUITAR COVER BY JONAS LEFVERT)

Jonas Lefvert plays a classical guitar cover of Rohan Theme - The Lord of the Rings.
He is really on time !!! Standard tuning.
See the TAB under the video.



THE LORD OF THE RINGS ROHAN THEME TAB

GP5 + GP6 + PDF >> 

Part 1

e---0-------3-----------5-----------------------------------------------
B---1-------1-------------8-7-------------------------------------------
G---0-------------------5---7-------7-----------------------------------
D---2-----------------------7-------------------------------------------
A---3-----------------------5-------------------------------------------
E-----------------------------------------------------------------------


e---0-------3-----------2-----------------------------------------------
B---1-------1-----------3-----------------------------------------------
G---0-------------------2-----------------------------------------------
D---2-------------------0-----------------------------------------------
A---3-------------------------------------------------------------------
E-----------------------------------------------------------------------


e---0-------3-----------5-----------------------------------------------
B---1-------1-------------8-7-------------------------------------------
G---0-------------------5---7-------7-----------------------------------
D---2-----------------------7-------------------------------------------
A---3-----------------------5-------------------------------------------
E-----------------------------------------------------------------------


20140817

MICHAEL LUCARELLI CANON IN D TAB (CLASSICAL GUITAR COVER)


Michael Lucarelli performs Pachelbel's "Canon in D" for classical guitar.
In the video we can't see what he is playing but just see the TAB below.



MICHAEL LUCARELLI CANON IN D TAB

GP5 + GP6 + PDF >>

Part 1

e---10-----------10---9------------9---7-----------7---5-------2---5----
B------------7----------------10---------------7-----------2------------
G--------7----------------9----------------7----------------------------
D---0--------------------------------------------------4----------------
A---------------------0-------------------------------------------------
E--------------------------------------7--------------------------------


e---3-----------3---2-----------2---3-----------------------------------
B-----------0---------------3---------------0---3---2-----------2-------
G-------0---------------2---------------0-------------------2-----------
D-------------------0-----------------------------------2---------------
A---------------------------------------------------0-------------------
E---3-------------------------------3-----------------------------------


e---2-----------2---0-----------0---------------------------------------
B-----------3---------------2-------3-----------3---2-----------2-------
G-------2---------------2-------------------4---------------2-----------
D---0-----------------------------------4---------------4---------------
A-------------------0---------------2-----------------------------------
E---------------------------------------------------2-------------------


20140627

MICHAEL LUCARELLI THE JAMES BOND THEME TAB (FINGERSTYLE GUITAR COVER)

Michael Lucarelli plays a cool fingerstyle guitar cover of The James Bond Theme.
He plays a "Loriente" "Clarita" cedar top classical guitar.
See the TAB under the video.



THE JAMES BOND THEME FINGERSTYLE TAB

GP5 + GP6 + PDF >>

Part 1

e-----------------------------------------------------------------------
B-----------------------------------------------------------------------
G-----------------------------------------------------------------------
D-----------------------------------------------------------------------
A-2---------------3---------------4---------------3---------------------
E---------0---------------0---------------0---------------0-------------


e-----------------------------------------------------------------------
B-----------------------------------------------------------------------
G-----------------------------------------------------------------------
D-----------------------------------------------------------------------
A-2---------------3---------------4---------------3---------------------
E---------0---------------0---------------0---------------0-------------


e-0---0---2---2-------0---0---0---0---0-0-3---3-------2---2---2---------
B-----------------------------------------------------------------------
G-----------------------------------------------------------------------
D-----------------------------------------------------------------------
A-2---------------3---------------4---------------3---------------------
E---------0---------------0---------------0---------------0-------------


20140219

THE LORD OF THE RINGS THEME TAB (CLASSICAL COVER BY MRDREADSOUL)

MrDreadSoul plays the Lord of the Rings theme on classical guitar.
The original piece was composed by Howard Shore.
See the TAB under the video.



THE LORD OF THE RINGS THEME TAB                   

PDF >>

Part 1

e-1---------1---------10-------------------12---------------------------
B-3-------3---3-------10----10----------10---------------10.------------
G-2-------------------10-12----------12-------------12------------------
D-0-------------------0-------------------------------------------------
A------------------------------------------0----------------------------
E-------------3---------------------------------------------------------


e-----------------------------------------------------------------------
B-6--6--6--6--6--6--8--8--8--8--8--8------------------------------------
G-7-----------------0---------------------------------------------------
D-7---------------------------------------------------------------------
A-5-----------------10--------------------------------------------------
E-----------------------------------------------------------------------


e-5--5--5--5--5--5--7--7--7--7--7--7------------------------------------
B-6-----------------7---------------------------------------------------
G-7-----------------7---------------------------------------------------
D-----------------------------------------------------------------------
A-5---------------------------------------------------------------------
E-------------------7---------------------------------------------------


20140209

ASTOR PIAZZOLA FUGA Y MISTERIO TAB (COVER BY FEDERICO OCHOA)

Federico Ochoa plays Astor Piazzola - Fuga Y Misterio with a classical guitar.
The original name of the video is FUGA Y MISTERIO PARA UNA SOLA GUITARRA.
See the TAB under the video.



FUGA Y MISTERIO TAB

PDF >>

Part 1

e------------------------------------------6---7---8-6-7----------------
B---------------------7---8---7---8---10--------------------------------
G---6-8---9---8---9-----------------------------------------------------
D-9-----9---------------------------------------------------------------
A-----------------------------------------------------------------------
E---------0--------------------------------0----------------------------


e-7.--12---10---8-----------------------------------------------7-7-7---
B-------------------12---11---8---7---7-------------------7-8-7---------
G-----------------------------------9------------------10---------------
D-----------------------------------------------------------------------
A-----------------------------------------------------------------------
E-----0-----------------------------------0-----------------------------


e-7---10---8-7--------------7-----------------------7-8-----------------
B--------------10---9-------------------10---9---10---------------------
G-------------------------------9---8-----------------------------------
D-----------------------------------------------------------------------
A---------------------------------------0-------------------------------
E-----0-----------------------------------------------------------------


20140128

THE PINK PANTHER THEME TAB (COVER BY HEMO)


Hemo plays the Pink Panther Theme on a classical guitar.
There is a little improvisation at the end.
See the TAB under the video.



PINK PANTHER THEME (ON GUITAR) TAB

GP5 + GP6 + PDF >>

e-----------------------------------------------------------------------
B-----------------------------------------------------------------------
G-----------------------------------------------------------------------
D---6/7--/8h9---------9-------------9-----------9-----------------------
A---4/5--/6h7---------7-------------7-----------7-----------------------
E-----------------------7-------------0-----------7.--------------------


e-----------------------------------------------------------------------
B-----------------------------------------------------------------------
G-----------------------------------------------------------------------
D---6/7--/8h9---------9-------------9-----------9-----------------------
A---4/5--/6h7---------7-------------7-----------7-----------------------
E-----------------------7-------------0-----------7.--------------------


e-----------------------------------------------8-7-\---3---7.----------
B---------------------7h8-----------------7h8---------5-----------------
G---------8/9-----------------------8/9---------------------------------
D---6/7.----------------------------------------------------------------
A---4/5.----------------------------------------------------------------
E-----------0-----------7-------------0---------------------------------


20131208

ELENA YEREVAN OLD GIPSY TAB (Ծեր Գնչուհին)


Elena Yerevan plays and sings OLD GIPSY with a single classical guitar.
Beautiful lady playing the guitar so cool.
Capo on the 3rd fret so a '-3-' means the open string in the TAB below.



ELENA YEREVAN OLD GIPSY TAB

PDF >>

Part 1

e-----------------------------------------------------------------------
B--------3-------3-------3-------3-------3-------3-------3-------3------
G------3-------3-------3-------3-------5-------5-------5-------5--------
D----7-------7-------7-------7-------7-------7-------7-------7----------
A-10-------8-------7-------6-------5------------------------------------
E------------------------------------------8-------6-------5------------


e-------------------------------------------------------10-------8------
B-------4-------3-------4-------3--------------8-------------8----------
G-------------3-------3-------3-------------11-----11-------------------
D-----5-----5-------5-------5-------5-----------------------------------
A---5-----------------------------------3-------------------------------
E-3---------------------------------------------------------------------


e---------------8-------6-------5---------------5-------6---6-----------
B-------7-----------7-------5-------------3---------3-------------------
G-----8-----8-------------------------5-------5-------------------------
D---7-------------------------------4-----------------------------------
A-3-----------------------------5---------------------------------------
E-----------------------------------------------------------------------


20131106

BEETHOVEN FÜR ELISE TAB (GUITAR COVER BY LAI YOUTTITHAM)

Lai Youttitham plays a cool guitar cover of Beethoven's Für Elise with his Ibanez guitar. Also an acoustic part between 1:40 and 2:20 (and a VOX DA5 in the background)
Be careful while learning because sometimes the video just doesn't match the audio line.
See the TAB under the video.


BEETHOVEN FÜR ELISE TAB

PDF >>

Part 1

e-12-11-12-11-12-7-10-8-7------------5-7---------7-8--------------------
B-------------------------10-------5-----------9------------------------
G--------------------------------5-----------9-----------9--------------
D------------------------------7-----------6-----------7----------------
A----------------------------7-----------7-----------7------------------
E-----------------------------------------------------------------------
                             x x x x     x x x       x x x


e-12-11-12-11-12-7-10-8-7-----------5-7-------8-7-----------------------
B---------------------------------5---------------10--------------------
G-------------------------------5-----------9------------9--------------
D-------------------------7---7-----------6------------7----------------
A---------------------------7-----------7------------7------------------
E-----------------------------------------------------------------------
                          x x x x x     x x x        x x x


e-12-11-12-11-12-7-10-8-7----------------5-7(8)(7)~------4-7/8~---------
B-------------------------8/10~---------5-------------/5----------------
G--------------------------------------5--------------------------------
D-----------------------------------------------------------------------
A-----------------------------------------------------------------------
E-----------------------------------------------------------------------
                                       xxx


20130717

JOSÉ FELICIANO ZORBA THE GREEK TAB

José Feliciano plays Zorba the Greek with a classical guitar. There are some bass and drums too. That's called real 'guitar playing': extremely fast, nice melodies and a lot of happyness from a person who actually can't see. TAB helps to learn that song below.



JOSÉ FELICIANO ZORBA THE GREEK TAB

PDF >>

Intro

e-6-7-------0---------6---9-7-6-7-9-7-6-7-9-7-6-7-7-7----------0--------
B-8-9-------0---------8---9-9-8-9-9-9-8-9-9-9-8-9-9-9----------0--------
G-----------1--------------------------------------------------1--------
D-----------2--------------------------------------------------2--------
A-----------2--------------------------------------------------2--------
E-----------0--------------------------------------------------0--------

Part 1

e-6---7.---7---7.---7---7.---7---7.---7---7.---7---7.-------------------
B-8---9.---9---9.---9---9.---9---9.---9---9.---9---9.-------------------
G-----------------------------------------------------------------------
D-----------------------------------------------------------------------
A-----------------------------------------------------------------------
E-----------------------------------------------------------------------


20130529

BESAME MUCHO TAB (COVER BY PATRICK KI)

Patrick Ki plays a great instrumental version of Besame Mucho on his DVD.
Download Patrick Ki's music or purchase the DVD here: http://www.patrickki.com
See the TAB under the video.



BESAME MUCHO TAB

PDF >>

Intro

e-----1.---0-----1.---0-----1.---0---------1.---0-----1.---0-----1.---0-
B-----3.---3-----3.---3-----3.---3---------3.---3-----3.---3-----3.---3-
G--------------2----------2-------------------------2----------2--------
D-0------------------------------------0--------------------------------
A-----------------------------------------------------------------------
E-----------------------------------------------------------------------


e-----1.---0-----1.---0-----1.---0---------1.---0---1.---1--------------
B-----3.---3-----3.---3-----3.---3---------3.---3--------3--------------
G--------------2----------2------------------------------2--------------
D-0------------------------------------0-----------------0--------------
A-----------------------------------------------------------------------
E-----------------------------------------------------------------------


20130419

ENNIO MORRICONE THE PROFESSIONAL TAB (CHI MAI)


Marco Savelli's guitar arrangement of Ennio Morricone - The Professional (Chi Mai).
See the TAB of both guitar lines below.



ENNIO MORRICONE THE PROFESSIONAL TAB

GP5 + GP6 + PDF >> 
 
Part 1

G1
e---9-----------9-----9--------------7-5-7------------------------------
B-----------------------------------------------------------------------
G-----------------------------------------------------------------------
D-----------------------------------------------------------------------
A-----------------------------------------------------------------------
E-----------------------------------------------------------------------

G2
e-----------------------------------------------------------------------
B-----------------------------------------------------------------------
G---------2-----------2-----------1-----------1-------------------------
D-------4---4-------4---4-------2---2-------2---2-----------------------
A-----4-------4---4-------4---2-------2---2-------2---------------------
E---2-----------2-----------0-----------0-------------------------------



G1
e---5---------------------5-5-------------------------------------------
B---------7-----------9-----------------------9---7---------------------
G---------------------------------7-------------------------------------
D-----------------------------------------------------------------------
A-----------------------------------------------------------------------
E-----------------------------------------------------------------------

G2
e-----------------------------------------------------------------------
B-----------------------------------------------------------------------
G---------2-----------2---------2-4-2-----------------------------------
D-------4---4-------4---4-----4-------4-----0-2-0-----------------------
A-----4-------4---4-------4-2-------------2-------2---------------------
E---2-----------2-----------------------0-------------------------------