Showing posts with label country. Show all posts
Showing posts with label country. Show all posts

20151017

DARIUS RUCKER WAGON WHEEL TAB (COUNTRY SOLO)


Darius Rucker sings Wagon Wheel.
There is a great country guitar solo about 2:45.
See the TAB of this solo under the video.



DARIUS RUCKER WAGON WHEEL SOLO TAB

GP5 + GP6 + PDF >>

e-----------------------------------------------------------------------
B-----------------------------------------------------------------------
G-----------------------------------------------------------------------
D------------------------------4(6)-----(4)-2.--------------------------
A---------0-2(4)-----(2)-0.---------------------------------------------
E---0h2-----------------------------------------------------------------


e-----------------------------------------------------------------------
B--------------------------5---5----------------------------------------
G---------2-4---2-4(6)-----------(6)-----(4)-----2.---------------------
D---2/4-----------------------------------------------------------------
A-----------------------------------------------------------------------
E-----------------------------------------------------------------------


e---5-----5-------------------------------------------------------------
B---5h7---5-------------------------------------------------------------
G-------------6\4-----2---------4-4---4---------------------------------
D-------------------------4/6-----------6\4---2-------------------------
A-----------------------------------------------------------------------
E-----------------------------------------------------------------------



20140914

NICKEL CREEK 21ST OF MAY TAB


There is a nice country guitar intro played in 21st Of May by Nickel Creek.
The extreme part goes until 0:42. Capo on the 3rd fret, standard tuning.
See the TAB under the video.



NICKEL CREEK 21ST OF MAY TAB

GP5 + GP6 + PDF >>

Intro

e-3/5-3-----------------------------------------------------------------
B-------4\3-------------------------------------------------------------
G-----------------------------------------------------------------------
D-----------------------------------------------------------------------
A-----------------------------------------------------------------------
E-----------------------------------------------------------------------


e-----------------------------------------------------------------------
B-1-----1---------------------------------------0-1-------------1-------
G---2-0---2-0-----------------------------0-1-2---------------0---------
D-------------2-1-0-----------------0-1-2-----------------0h2-----------
A---------------------------0-1-2-3-------------------------------------
E-------------------0-1-2-3---------------------------------------------


e-------0-------0-------------------------------------------------------
B-----1-------1---------0-------0-----1---------1-------1-----1---------
G-0h2-----2p0---------0-------0-------0-------0-------0-------0---------
D-----------------0h2-----1p0---------2-----2-------2-----0h2-----------
A---------------------------------3---------------3---------------------
E-----------------------------------------3-----------------------------


20130604

TRAVIS TRITT HERE'S A QUARTER TAB (CALL SOMEONE WHO CARES)


There is a cool country solo in Here's a Quarter (Call Someone Who Cares)
The video shows only the first solo but the TAB covers the complete solo with chords.



TRAVIS TRITT HERE'S A QUARTER CALL SOMEONE WHO CARES TAB

PDF >>
 
Telecaster solo

e-----------------------------------------------------------------------
B-----------3---------------3-------------------------------------------
G-----0-----2(4)---(2)(4)---(4)(2)p0-----0.-----------------------------
D-0h2-----2--------------------------2----------------------------------
A-----------------------------------------------------------------------
E-----------------------------------------------------------------------


e----------------0------0-----------------------------------------------
B---3--------------1------x---------------------------------------------
G------------3--------3-----3'---------------------0-2(4)(2)-0----------
D-3------1/2---2---------------/5~-------------0h2----------------------
A-----------------------------------------------------------------------
E-----------------------------------------------------------------------