Showing posts with label cover. Show all posts
Showing posts with label cover. Show all posts

20170110

GEORGE HARRISON SOMETHING TAB (INSTRUMENTAL GUITAR COVER BY CAUE LOBO)

Caue Lobo plays an instrumental guitar cover of Something by George Harrison.
Sounds amazing!
Download the Guitar Pro Tab below.



GEORGE HARRISON SOMETHING TAB

PDF >>

GP5 + GP6 >>

Part 1

e-----------------------------------------------------------------------
B-----------------------------------------------------------------------
G------2.--(5)(4)-2.--3-------4-----------------------------------------
D-----------------------------------------------------------------------
A-----------------------------------------------------------------------
E-----------------------------------------------------------------------


e-----------------------------------------------------------------------
B-----------------------------------------------------------------------
G---4/5---5-------5~----------5---4~------------------------------------
D---------------------------5-------------------------------------------
A-----------------------------------------------------------------------
E-----------------------------------------------------------------------


e-----------------------------------------------------------------------
B-----------------------------------------------------------------------
G---5\3-3-3.--3.--5.--5/7-----5.--5-------------------------------------
D----------------------------------5h7~----------\----------------------
A-----------------------------------------------------------------------
E-----------------------------------------------------------------------



20170105

YOU'LL NEVER WALK ALONE TAB (INSTRUMENTAL GUITAR COVER BY NEVILLE WORTHINGTON)

Neville Worthington plays an instrumental guitar cover of You'll Never Walk Alone.
The original song was written by Rogers and Hammerstein.
Download the Guitar Pro 6, GP5 and PDF files below.



YOU'LL NEVER WALK ALONE INSTRUMENTAL TAB

PDF >>

e-----------------------------------------------------------------------
B-----------------------------------------------------------------------
G-----------------------------------------------------------------------
D---2---0--------------------2---0--------------------------------------
A---------3------------------------3------------------------------------
E-----------------------------------------------------------------------


e-----------------------------------------------------------------------
B-----------------------------------------------------------------------
G-----------------------------------------------------------------------
D---2---3-5-----------------2-----0-------------------------------------
A-----------------------------------------------------------------------
E-----------------------------------------------------------------------


e-----------------------------------------------------------------------
B-----------------------------------------------------------------------
G-----------------------------------------------------------------------
D---2-3-----------------5---3-2-----------------5---2-0-----------------
A-----------------------------------------------------------------------
E-----------------------------------------------------------------------


20161221

CELINO ROMERO LA PALOMA 2 TAB (CLASSICAL GUITAR COVER)

Celino Romero plays La Paloma 2, very nice classical guitar cover.
He is using Dropped D tuning.
Download the Guitar Pro tab below.



CELINO ROMERO LA PALOMA 2 TAB

PDF >>

GP5 + GP6 >>

e-----------------------------------------------------------------------
B-----------------------------------------------------------------------
G-----------------------------------------------------------------------
D------------0-----------------0-----------------0----------------------
A----------0-----0-----------0-----0-----------0-----0------------------
D--0-----------------0-----------------0--------------------------------
   x       x x   x   x       x x   x   x       x x   x


e-----------------------------------------------------------------------
B-----------------------------------------------------------------------
G-----------------------------------------------------------------------
D------------0---4-/-7~---------------------------------9~--------------
A----------0-----------------0-5.--0-------9---10-12--0-----------------
D--0-----------------0-----------------0--------------------------------
   x       x x


e-----------------------------------------------------------------------
B-----------------------------------------------------------------------
G-----------------------------------------------------------------------
D----11~---12-9-11----7---7\5--------------------------------<7>--------
A-------------------0---------------0-4.--7.-------------<7>------------
D--0-------------------------------------------<7>----------------------


20161215

DHALIF ALI A THOUSAND YEARS TAB (INSTRUMENTAL GUITAR COVER OF CHRISTINA PERRI'S SONG)

Dhalif Ali (dhalif) plays an instrumental guitar cover of A Thousand Years.
The original song is played by Christina Perri.
Download the Guitar Pro Tab below.



DHALIF ALI A THOUSAND YEARS TAB

PDF >>

GP5 + GP6 >>

Verse

e-----------------------------------------------------------------------
B-----------------------------------------------------------------------
G-----------------------------------------------------------------------
D---8~----------------------8~----------10/12--\10--p8------------------
A---------------------------------------x-------------------------------
E-----------------------------------------------------------------------


e-----------------------------------------------------------------------
B-----------------------------------------------------------------------
G---------------------------------------8/10--p8\7----------------------
D---8~----------------------8~----------x-------------------------------
A-----------------------------------------------------------------------
E-----------------------------------------------------------------------


e-----------------------------------------------------------------------
B-----------------------------------------------------------------------
G----------------10--p8\7-----------------------------------------------
D---8------------x------------10----/12-----7~--/-8---------------------
A---------8h10~---------------------------------------------------------
E-----------------------------------------------------------------------


20161209

AA BONDY I'M SO LONESOME I COULD CRY TAB (HANK WILLIAMS SONG)

AA Bondy plays I'm So Lonesome I Could Cry by Hank Williams.
Very nice fingerpicking and a harp solo. Standard tuning + CAPO on the 2nd.
See the TAB under the video.



AA BONDY I'M SO LONESOME I COULD CRY TAB

PDF >>

Intro                   - Capo on the 2nd -

e-------------0---------------------------------------------------------
B---1-----------------1-------0-----0h1-------0-------1-------1---------
G---------0-------0-------0-------0-------0-------0-------0-------0-----
D-------2-------2-------2-------2-------2-------2-------2-------2-------
A---3---------------3---------------3---------------3-------------------
E-----------3---------------3---------------3---------------3-----------


e-------------------------3p0-----------------0-----3---0-----0---------
B-----1-----3p1---1-------------3p1-----1-------------------3-----------
G---------2-----2-----0-------0-----0-----0-------0-------0-------0-----
D-------3-------3-------2-------2-------2-------2-------2-------2-------
A-------------------3-------3-------3-------3-------3-------3-----------
E---1-------1-----------------------------------------------------------


e-------3-----3-----1-------------------------0---------------0---------
B-----------------0-----------------1---------------0h1-----------------
G-------------------------0-------0-------0-------0-------0-------------
D-------0-------0-------0-------0-------2-------2-------2-------2-------
A---------------------------0h2-----3---------------3-------------------
E---3-------3-------3-----------------------3---------------3-----------



20161117

SAILOR'S HORNPIPE TAB (TENOR GUITAR COVER BY DAVID HANSEN)

David Hansen plays Sailor's Hornpipe on his tenor guitar.
The tuning is GDAE (from the lower to the higher string)
See the TAB below.




SAILOR'S HORNPIPE TAB

GP5 + GP6 + PDF >>

E---3--2-3.--------------------3.--3---2--3-----------------------------
A--------------------5--3-2--5------------------------------------------
D------------5.--5.-----------------------------------------------------
G-----------------------------------------------------------------------


E---5.----------5--3-2.----------0--2-----------------------------------
A-------0---0------------5.--5------------------------------------------
D-----------------------------------------------------------------------
G-----------------------------------------------------------------------


E---3--2-0----0---------------------------------------------------------
A-----------5----5-3--2-3--2-0----0-------------------------------------
D-------------------------------5----5-4--2-----------------------------
G-----------------------------------------------------------------------


E-----------------------------------3--2--------------------------------
A-----------0----2-0--3-2-----------------------------------------------
D---0--5-4----5-------------5.--5.--------------------------------------
G-----------------------------------------------------------------------


20161114

THE ROCKY ROAD TO DUBLIN TAB (INSTRUMENTAL TENOR GUITAR COVER BY DAVID HANSEN)

David Hansen plays The Rocky Road To Dublin on his tenor guitar.
The tuning is GDAE (from the lower to the higher string)
See the TAB below.



THE ROCKY ROAD TO DUBLIN TAB

GP5 + GP6 + PDF >>

E---0-1-0--------------------------0-1-0--------------------------------
A---------5-3-2-0------0-0--2-3--5-------5--3-0--3-2-------0-2-3-5------
D-------------------2---------------------------------5-5---------------
G-----------------------------------------------------------------------


E---0-1-0--------------------------0-1-0--------------------------------
A---------5-3-2-0------0-0--2-3--5-------5--3-0--3-2-------0-2-3-5------
D-------------------2---------------------------------5-5---------------
G-----------------------------------------------------------------------


E---0--5-5--2-3---0--5-5----------0--5-5--2-3.-0------------------------
A-------------------------0-2-3-5----------------5--2----0-2-3-5--------
D-----------------------------------------------------5-----------------
G-----------------------------------------------------------------------


E---0--5-5--2-3---0--5-5----------0--5-5--2-3.-0------------------------
A-------------------------0-2-3-5----------------5--2----0-2-3-5--------
D-----------------------------------------------------5-----------------
G-----------------------------------------------------------------------



20161110

ROY ORBISON ONLY THE LONELY TAB (INSTRUMENTAL GUITAR COVER PLAYED BY ERIC)

Eric plays Only The Lonely by Roy Orbison with his Fender Stratocaster.
Great instrumental guitar cover.
See the TAB under the video.



ONLY THE LONELY INSTRUMENTAL TAB

PDF >>

Original intro

e-----------------------------------------------------------------------
B-----------------------------------------------------------------------
G-------0---2--------------------------------0---2----------------------
D---3------------------------------------3-----------0~----0~-----------
A---------------3~----3~------------------------------------------------
E-----------------------------------------------------------------------


e-----------------------------------------------------------------------
B-----------------------------------------------------------------------
G-------0---2---0-------------0-----------------------------------------
D---3-------------3-2-3~-------3-2~------2-3---5-5-3~-------------------
A-----------------------------------------------------------------------
E-----------------------------------------------------------------------


e-----------------------------------------------------------------------
B-----------------------------------------------------------------------
G-----------------------------------------------------------------------
D---2-3---5-5-3~--------------------------------------------------------
A-----------------------------------------------------------------------
E-----------------------------------------------------------------------



20161105

ZORBA THE GREEK TAB (FINGERSTYLE COVER BY CACHO TIRAO)

Zorba the Greek (Zorba el Griego) played by the great Cacho Tirao.
Awesome fingerstyle version from a live TV show.
See the TAB under the video.


CACHO TIRAO ZORBA THE GREEK TAB

PDF >>

GP5 + GP6 >>

Part 1

e---------5.--------------5.--------------5.--------------5.------------
B---------5.--------------5.--------------5.--------------5.------------
G---------6.--------------6.--------------6.--------------6.------------
D-----------------------------------------------------------------------
A-0.------------------------------0.------------------------------------
E-----------------0.------------------------------0.--------------------


e-----------------------------------------------------------------------
B-4/5~------5.--------------5-----4/5~------5.--------------5-----------
G-----------6.--------------6---------------6.--------------6-----------
D-----------7.--------------7---------------7.--------------7-----------
A-0.------------------------------0.------------------------------------
E-------------------0.------------------------------0.------------------


e-----------------------------------------------------------------------
B-7p5-4-4/5~------5.--------------5-----4/5~------5.---------------5.---
G-----------------6.--------------6---------------6.---------------6.---
D-----------------7.--------------7---------------7.---------------7.---
A-------0.------------------------------0.------------------------------
E-------------------------0.-------------------------------0.-----------


20161025

PINK FLOYD COMFORTABLY NUMB TAB (ELECTRIC GUITAR COVER BY KFIR OCHAION)

Kfir Ochaion plays an instrumental guitar cover of Comfortably Numb by Pink Floyd.
Great lead guitar playing with a nice Stratocaster.
See the TAB under the video. (0:00 - 1:54)



KFIR OCHAION COMFORTABLY NUMB TAB

GP5 + GP6 + PDF >>

Part 1

e-----------------------------------------------------------------------
B-----------------------------------------------------------------------
G-------------------------------2---------------------------------------
D---2-2/4~--------------------------------------------------------------
A-----------------------5-2---------4~----------------------------------
E-------------------2-5-----5-2-----------------------------------------
                    x x     x x

e-----------------------------------------------------------------------
B-----------------------------------------------------------------------
G-----------------------------------------------------------------------
D-----4p2-----4-----------------------------4-4~---2/4~-----------------
A---------5-2---5~------------------2p0-2-------------------------------
E---5-------------------------------------------------------------------
    x

e-----------------------------------------------------------------------
B-----------------------------------------------------------------------
G-----------------------------------2-----------------------------------
D---2/4-4~--------4~------------------2~--------------------------------
A-----------------------------0-4-0-------------4~----------------------
E-----------------------------------------------------------------------
                              x x x 



20161020

BOB DYLAN BOOTS OF SPANISH LEATHER TAB (COVER BY FLORBIN)

Great cover by Florbin, he sings Bob Dylan's Boots of Spanish Leather.
Standard tuning + CAPO on the 3rd fret.
See the TAB under the video.


BOB DYLAN BOOTS OF SPANISH LEATHER TAB

GP5 + GP6 + PDF >>

Intro                        CAPO on the 3rd

e-------------------0---------------------------------------------------
B-------------3-----------3---------1---------1-----0---------0---------
G---------0-------------------0-----------0---------------0-------------
D-------4-------4-------4-------4-------0-------0-------0-------0-------
A-----------------------------------------------------------------------
E---0-------0-------0-------0-------2-------2-------3-------3-----------


e-----------------------------------------------------------------------
B---1---------1-----0---------0-----0---------0-------------------------
G---------0---------------0---------------0-----------------------------
D-------2-------2-------0-------0-------0-------0-----------------------
A-----------------------------------------------------------------------
E---3-------3-------3-------3-------3-------3---------------------------


e-----------------------------------------------------------------------
B---3---------3-----1---------1-----0---------0-----0---------0---------
G---------0---------------0---------------0---------------0-------------
D-------4-------4-------0-------0-------0-------0-------0-------2/9-----
A-----------------------------------------------------------------------
E---0-------0-------2-------2-------3-------3-------3-------3-----------


20161017

RUCY THE BRIDE AND GROOM TAB (MAIN RIFF)


Rucy plays his original song 'The Bride And Groom' Brilliant lead guitar song.
See the TAB under the video.



RUCY THE BRIDE AND GROOM TAB

GP5 + GP6 + PDF >>

Part 1

e------11---10----------------------15----13-11\-----11----h13.---------
B-------------11\-/8h11~---/13\------------------/13--------------------
G---/8----8---------------------/12----12-------------------------------
D-----------------------------------------------------------------------
A-----------------------------------------------------------------------
E-----------------------------------------------------------------------


e-----------------------------------------------------------------------
B---11(13)---(11)~----------11(13)(11)-9-8------------------------------
G---x-----------------------x--------------11\10p8----------------------
D-----------------------------------------------------------------------
A-----------------------------------------------------------------------
E-----------------------------------------------------------------------


e--------10-------10-10h12~----------\----------------------------------
B-----------------------------------------------------------------------
G---9h10----10/12-------------------------------------------------------
D-----------------------------------------------------------------------
A-----------------------------------------------------------------------
E-----------------------------------------------------------------------


20161008

ELTON JOHN CAN YOU FEEL THE LOVE TONIGHT TAB (INSTRUMENTAL GUITAR COVER BY STEPHEN PETERS)

Great instrumental guitar cover of Can You Feel The Love Tonight by Stephen Peters.
Attention: 1 step down tuning (so DGCFAD)
See the TAB under the video.



CAN YOU FEEL THE LOVE TONIGHT TAB (INSTRUMENTAL)

PDF >>

GP5 + GP6 >>

Part 1

D-----------------------------------------------------------------------
A-----------------------------------------------------------------------
F--------4-5---5/7\5--------------------4-5---5/7--\5~------------------
C------7---------------5-5~-----------7---------------------------------
G-----------------------------------------------------------------------
D-----------------------------------------------------------------------


D-----------------------------------------------------------------------
A-------------------6-----5h6p5-------6~-----5h6p5----------------------
F-------4-5---------------------7---5--------------7---5-7~-------------
C---7-------------5-----------------------------------------------------
G-----------------------------------------------------------------------
D-----------------------------------------------------------------------


D-----------------------------------------------------------------------
A-----------------------------------------------------------------------
F-------------------4-5---5/7-5-----------------------------------------
C---5\3\2---------7---------------5-5~----------------------------------
G---------3\2----------------------------5h7p5\3------------------------
D-------------1.-----------------------------------1--------------------



20161003

ELVIS PRESLEY LOVE ME TENDER TAB (FINGERSTYLE GUITAR COVER BY KYÖSTI RAUTIO)

Nice and easy fingerstyle guitar cover of Love Me Tender played by Kyösti Rautio.
Standard tuning!
Download the Guitar Pro Tab below.



LOVE ME TENDER FINGERSTYLE TAB

GP5 + GP6 + PDF >>

Part 1

e-------3-------3-------3-------3---------------------------------------
B-------3-------3-------3-------3---------------------------------------
G-------0-------0-------0-------0---------------------------------------
D-----------0---------------0-------------------------------------------
A-----------------------------------------------------------------------
E---3---------------3---------------------------------------------------


e-------3---2---3-/-5~------5~------3---2---0---2---3-----------3-------
B---3-------------------5-----------1-------1-----------3-------3-------
G-----------------------------------2-------2-----------0-------0-------
D-----------------------------------0-----------------------0-----------
A-----------2-------4-----------------------0---------------------------
E---3-----------------------5-----------------------3-------------------


e-------3---2---3-/-5~------5~------3---2---0---2---3-------3-----------
B---3-------------------5-----------1-------1---------3---3-------------
G-----------------------------------2-------2-----------0---------------
D-----------------------------------0-----------------------------------
A-----------2-------4-----------------------0---------------------------
E---3-----------------------5-----------------------3-------------------


20160912

HANSEL PETHIG MAD WORLD TAB (FINGERSTYLE GUITAR COVER OF GARY JULES'S SONG)

Brilliant fingerstyle guitar cover of Mad World (Gary Jules) played by Hansel Pethig.
Dropped D tuning with CAPO on the 8th fret.
Download the Guitar Pro Tab below.



HANSEL PETHIG MAD WORLD TAB

PDF >>

Part 1

e------0----------------------------------------------------------------
B---1-----0--1-----0-----------------------------1----------------------
G---------------2-----0-------------------------------------------------
D---------2-----------2--4-----------2-----0----------------------------
A---0-----------0-----------------0-----------0-------------------------
D---------------------------0-----------0-------------------------------


e------0----------------------------------------------------------------
B---------0--1-----0--1--3----------------------------------------------
G---------------2--------0-----------0----------------------------------
D---------2-----------2-----------2-----4--2--0-------------------------
A---0-----------0--------------0-----------------3----------------------
D---------------------------0-------------------------------------------


e------0----------------------------------------------------------------
B---1-----0--1-----0-----------------------------1----------------------
G---------------2-----0-------------------------------------------------
D---------2-----------2--4-----------2-----0----------------------------
A---0-----------0-----------------0-----------0-------------------------
D---------------------------0-----------0-------------------------------



20160906

JOE BONAMASSA SLOE GIN GUITAR SOLO TAB (COVER BY FLORIAN CASCIANO)


Florian Casciano plays a great cover of Joe Bonamassa - Sloe Gin guitar solo part.
See the TAB under the video.



JOE BONAMASSA SLOE GIN GUITAR SOLO TAB


e-----------------------------------------------------------------------
B-------------------------------3-----------3---3---3---3---3---3-------
G---2---------------------------0-----------0---0---0---0---0---0-------
D---2-------2---2---2---2---2---0-----------0---0---0---0---0---0-------
A---0-------0---0---0---0---0---x-----------x---x---x---x---x---x-------
E-------------------------------3-----------3---3---3---3---3---3-------


e-----------1p0-----------------------------3---------------------------
B---------3-----3p1---------1-p-0---------------0-0---------------------
G---2---2---------------0---------------0-------0-0-3-------5-----------
D---0---------------3-------------------------------3---3-3-5---5-5-----
A---------------------------------------------------1---1-1-3---3-3-----
E-----------------------------------3-----------------------------------


e-----------------------------------------------------------------------
B-------------------------------3---------------------------------------
G---2-------2-------2-----------0---------------------------------------
D---2---2---2---2---2---2---2---0---------------------------------------
A---0---0---0---0---0---0---0---x---------------------------------------
E-------------------------------3---------------------------------------


20160901

ERIC TINGSTAD DANZA MORA TAB (LEAD GUITAR LINE, GUITAR PRO)

Eric Tingstad - Danza Mora, great instrumental guitar song.
Sometimes there are 2 lead guitar lines in the song.
See the TAB under the video.



ERIC TINGSTAD DANZA MORA TAB

PDF >>

Part 1

e--------------------5-----------------------6---5~---------------------
B---------------5h6h8-----8----6---5----8-------------------------------
G---7~------------------------------------------------------------------
D-----------------------------------------------------------------------
A-----------------------------------------------------------------------
E-----------------------------------------------------------------------


e---6---p5--------------------------------------------------------------
B-------------8---8~-----------------------6---5~-----------------------
G--------------------------------6---h7---------------------------------
D-----------------------------------------------------------------------
A-----------------------------------------------------------------------
E-----------------------------------------------------------------------


e--------5~---------6--p5~-------------10~----------9h10p9--------------
B---5h6h8-------------------------------------------------10~-----------
G-----------------------------------------------------------------------
D-----------------------------------------------------------------------
A-----------------------------------------------------------------------
E-----------------------------------------------------------------------



20160830

FLEETWOOD MAC NEED YOUR LOVE SO BAD TAB (INSTRUMENTAL GUITAR COVER BY TERRY R)

Terry R plays Fleetwood Mac's Need Your Love So Bad.
Great instrumental guitar cover.
TAB under the video.



NEED YOUR LOVE SO BAD INSTRUMENTAL TAB


Part 1

e-----------------------------------------------------------------------
B------------10.--12(14)---(12)(14)------------(12)---------------------
G---9-/-11--------------------------------------------------------------
D-----------------------------------------------------------------------
A-----------------------------------------------------------------------
E-----------------------------------------------------------------------


e-----------------------------------------------------------------------
B------------10h12p10--10~----------------------------------------------
G---9-/-11-----------11-------------------------------------------------
D-----------------------------------------------------------------------
A-----------------------------------------------------------------------
E-----------------------------------------------------------------------


e-----------------------------------------------------------------------
B--------------10---12--10~---------------------------------------------
G---9---9/11----------11------------------------------------------------
D-----------------------------------------------------------------------
A-----------------------------------------------------------------------
E-----------------------------------------------------------------------


20160823

DAVID LOCKE WONDERFUL TONIGHT TAB (FRET-KING COUNTRY SQUIRE)

David Locke plays an instrumental guitar cover of Wonderful Tonight.
The original song is by Eric Clapton.
Download the Guitar Pro Tab below.



DAVID LOCKE WONDERFUL TONIGHT TAB

PDF >>

GP5 + GP6 >>

Part 1

e-----------------------------------------------------------------------
B-------10(12)-(10)p8.-10~------10(12)-(10)p8.--------------------------
G-----7----------------------------------------9~-----------------------
D-----------------------------------------------------------------------
A-----------------------------------------------------------------------
E-----------------------------------------------------------------------


e-----------------------------------------------------------------------
B------10(12)-(10)p8.-10~----12~--/13~---15(17)---(15)~---\-------------
G---7.------------------------------------------------------------------
D-----------------------------------------------------------------------
A-----------------------------------------------------------------------
E-----------------------------------------------------------------------


e-----------------------------------------------------------------------
B------10(12)-(10)p8.-10~---------10(12)-(10)p8.------------------------
G------------------------------7.----------------9~---------------------
D-----------------------------------------------------------------------
A-----------------------------------------------------------------------
E-----------------------------------------------------------------------


20160818

BURNS ERNST WONDERFUL TONIGHT TAB (INSTRUMENTAL GUITAR COVER)

Burst Ernst plays a nice instrumental guitar cover of Wonderful Tonight.
Original tune by Eric Clapton.
See the TAB under the video.


BURNS ERNST WONDERFUL TONIGHT TAB


Intro

e-----------------------------------------------------------------------
B------10(12)-(10)--8--10~-----------10(12)-(10)--8---------------------
G---7-----------------------------7------------------9~-----------------
D-----------------------------------------------------------------------
A-----------------------------------------------------------------------
E-----------------------------------------------------------------------


e-----------------------5-/-7-/--8-/-12-\-10~---------------------------
B------10(12)-(10)--8---7-/-8-/-10-/-13-\-12~---------------------------
G---7-------------------------------------------------------------------
D-----------------------------------------------------------------------
A-----------------------------------------------------------------------
E-----------------------------------------------------------------------


e-----------------------------------------------------------------------
B------10(12)-(10)--8--10~-----------10(12)-(10)---8--------------------
G---7-----------------------------7------------------9~-----------------
D-----------------------------------------------------------------------
A-----------------------------------------------------------------------
E-----------------------------------------------------------------------