Showing posts with label danny mirror. Show all posts
Showing posts with label danny mirror. Show all posts

20171003

ELLERT NORDMARK I REMEMBER ELVIS PRESLEY TAB (INSTRUMENTAL GUITAR COVER)

Ellert Nordmark plays I Remember Elvis Presley (Danny Mirror)
Very nice instrumental guitar cover.
Download the TAB below.



ELLERT NORDMARK I REMEMBER ELVIS PRESLEY TAB

GP5 + GP6 + PDF >>

Part 1

e-----------------------------------------------------------------------
B-----------------------------------------------------------------------
G-----------------------------------------------------------------------
D-----------0-2-4-4-4-4-2-0---------------------------------------------
A---4-4-4-4-----------------4-------------------------------------------
E-----------------------------------------------------------------------
    x x x x x x x x x x x x 


e-----------------------------------------------------------------------
B-----------------------------------------------------------------------
G----------------------------------2~-----------------------------------
D-------0-2-------0-2-2/4~-----2/4--------------------------------------
A---4---------4---------------------------------------------------------
E-----------------------------------------------------------------------


e-----------------------------------------------------------------------
B-----------------------------------------------------------------------
G---1---2-2/4-2---1-----------------------------------------------------
D-------------------4-2~------------------------------------------------
A-----------------------------------------------------------------------
E-----------------------------------------------------------------------