Showing posts with label darius rucker. Show all posts
Showing posts with label darius rucker. Show all posts

20161104

DARIUS RUCKER HOMEGROWN HONEY TAB (ACOUSTIC)

Darius Rucker plays his original song Homegrown Honey with his friends.
Use standard tuning and put the Capo on the 2nd fret to play the lead guitar parts.
(Darius has the Capo on the 1st. - good idea )
Free Download of the Guitar Pro files !!!




DARIUS RUCKER HOMEGROWN HONEY ACOUSTIC TAB

GP5 + GP6 + PDF >>

Intro Solo                     - CAPO on the 2nd -

e-----------------------------------------------------------------------
B-----------------------------------------------------------------------
G-----------4.--6-6/8~--------------------------------------------------
D---4-4-6.--------------------------------------------------------------
A-----------------------------------------------------------------------
E-----------------------------------------------------------------------


e-----------------------------------------------------------------------
B--------------------------------7~-------------------------------------
G---------------4.--6-6/8~----------------8\6p4-------------------------
D---x-x-4-4-6.---------------------------------6~-----------------------
A-----------------------------------------------------------------------
E-----------------------------------------------------------------------


e-----------------------------------------------------------------------
B-------------------------7~--------------------------------------------
G---------------4.--6-6/8~----------------------------------------------
D---6-0-4-4-6.----------------------------------------------------------
A-----------------------------------------------------------------------
E-----------------------------------------------------------------------


20151017

DARIUS RUCKER WAGON WHEEL TAB (COUNTRY SOLO)


Darius Rucker sings Wagon Wheel.
There is a great country guitar solo about 2:45.
See the TAB of this solo under the video.



DARIUS RUCKER WAGON WHEEL SOLO TAB

GP5 + GP6 + PDF >>

e-----------------------------------------------------------------------
B-----------------------------------------------------------------------
G-----------------------------------------------------------------------
D------------------------------4(6)-----(4)-2.--------------------------
A---------0-2(4)-----(2)-0.---------------------------------------------
E---0h2-----------------------------------------------------------------


e-----------------------------------------------------------------------
B--------------------------5---5----------------------------------------
G---------2-4---2-4(6)-----------(6)-----(4)-----2.---------------------
D---2/4-----------------------------------------------------------------
A-----------------------------------------------------------------------
E-----------------------------------------------------------------------


e---5-----5-------------------------------------------------------------
B---5h7---5-------------------------------------------------------------
G-------------6\4-----2---------4-4---4---------------------------------
D-------------------------4/6-----------6\4---2-------------------------
A-----------------------------------------------------------------------
E-----------------------------------------------------------------------