Showing posts with label dhalif ali. Show all posts
Showing posts with label dhalif ali. Show all posts

20161215

DHALIF ALI A THOUSAND YEARS TAB (INSTRUMENTAL GUITAR COVER OF CHRISTINA PERRI'S SONG)

Dhalif Ali (dhalif) plays an instrumental guitar cover of A Thousand Years.
The original song is played by Christina Perri.
Download the Guitar Pro Tab below.



DHALIF ALI A THOUSAND YEARS TAB

PDF >>

GP5 + GP6 >>

Verse

e-----------------------------------------------------------------------
B-----------------------------------------------------------------------
G-----------------------------------------------------------------------
D---8~----------------------8~----------10/12--\10--p8------------------
A---------------------------------------x-------------------------------
E-----------------------------------------------------------------------


e-----------------------------------------------------------------------
B-----------------------------------------------------------------------
G---------------------------------------8/10--p8\7----------------------
D---8~----------------------8~----------x-------------------------------
A-----------------------------------------------------------------------
E-----------------------------------------------------------------------


e-----------------------------------------------------------------------
B-----------------------------------------------------------------------
G----------------10--p8\7-----------------------------------------------
D---8------------x------------10----/12-----7~--/-8---------------------
A---------8h10~---------------------------------------------------------
E-----------------------------------------------------------------------