Showing posts with label don felder. Show all posts
Showing posts with label don felder. Show all posts

20171228

DON FELDER HOTEL CALIFORNIA SOLO TAB (ACOUSTIC LIVE)

Don Felder plays Hotel California acoustic guitar solo live at the Jeff Probst Show.
It's in G minor instead of the original B minor - but sounds cool.
Download the TAB below.



DON FELDER HOTEL CALIFORNIA SOLO TAB

GP5 + GP6 + PDF >>

Main Part

e-------------------3-----3-------------------5-------------------------
B-----------------3-----------------------3-------3---------------------
G-------------3-------------3---5-------5-------------------------------
D---------5-------------------------4---------------4-------------------
A-------5---------------------------------------------------------------
E---3-------------------------------------------------------------------


e-------------3-------------------------------------3-------------------
B---------6-------6-------6-------------------3-------------------------
G-------5---------------5---------5-------3-------3---------------------
D---3---------------3-----------3-------5-------------------------------
A---------------------------3-------7-----------------------------------
E-----------------------------------------------------------------------


e-------------------3-------------------------6-------------------------
B-------------4-------------------4-------3-------3---------------------
G---------3-------3-------3-----3-------3-----------------3-------3-----
D-------5-------------------3h5-----3-------------------3-------3-------
A---6-------------------6---------------------------5-------------------
E-----------------------------------------------------------6-----------