Showing posts with label dorothy. Show all posts
Showing posts with label dorothy. Show all posts

20171024

DOROTHY NO CHURCH IN THE WILD TAB (LIVE IN AUSTIN, 2015 #JAMINTHEVAN)


Dorothy - No Church In The Wild live #Jaminthevan
Standard tuning, download the TAB below



DOROTHY NO CHURCH IN THE WILD TAB

GP5 + GP6 + PDF >>

Intro

e-----------------------------------------------------------------------
B-----------------------------------------------------------------------
G-----------------------------------------------------------------------
D--------------------2-----------2h4------------------2-----------------
A--------------2p0-----2------------------------2p0-----4-2---2---------
E---2~---5-2-5-----2-----5-2-5-2-----2~---5-2-5-----2-------5---5-2~----


e-----------------------------------------------------------------------
B-----------------------------------------------------------------------
G-----------------------------------------------------------------------
D--------------------2-----------2h4------------------2-----------------
A--------------2p0-----2------------------------2p0-----4-2---2---------
E---2~---5-2-5-----2-----5-2-5-2-----2~---5-2-5-----2-------5---5-2-0---


Verse

e-----------------------------------------------------------------------
B-----------------------------------------------------------------------
G-----------------------------------------------------------------------
D--------------------2-----------2h4------------------2-----------------
A--------------2p0-----2------------------------2p0-----4-2---2---------
E---2~---5-2-5-----2-----5-2-5-2-----2~---5-2-5-----2-------5---5-2-0---


20161201

DOROTHY AFTER MIDNIGHT TAB (LIVE IN AUSTIN, 2015 #JAMINTHEVAN)


Live performance of Dorothy - After Midnight. Powerful song !!!
Standard tuning. Have fun :)



DOROTHY AFTER MIDNIGHT TAB

GP5 + GP6 + PDF >>

e-----------------------------------------------------------------------
B-----------------------------------------------------------------------
G---6-4~----------------------------------------------------------------
D-----------4-2'--------------------------------------------------------
A-----------------------------------------------------------------------
E-----------------------------------------------------------------------


Verse

e-----------------------------------------------------------------------
B-----------------------------------------------------------------------
G-----------------------------------------------------------------------
D---6-6.--6-------\------------------6-6.--6-------\--------------------
A---4-4.--4-------\------------------4-4.--4-------\--------------------
E---4-4.--4-------\------------------4-4.--4-------\--------------------


e-----------------------------------------------------------------------
B-----------------------------------------------------------------------
G----------------------------------------------------6-4~---------------
D---6-6.--6-------\------------------4-4-----4---4-4---------4-2'-------
A---4-4.--4-------\------------------2-2-----2---2-2--------------------
E---4-4.--4-------\------------------2-2-----2---2-2--------------------