Showing posts with label eastwood. Show all posts
Showing posts with label eastwood. Show all posts

20160109

AIRLINE 59 2P DEMO - RJ RONQUILLO TAB (EASTWOOD GUITARS)

RJ Ronquillo plays a cool demo for the Eastwood Airline '59 2P guitar.
Killer sound in standard tuning !!!
See the TAB of the first minute under the video.



RJ RONQUILLO EASTWOOD AIRLINE 59 2P DEMO TAB

PDF >>

e-----------------------------------------------------------------------
B------------------------------------------------5---5.-----------------
G---5-5-5-5.--4-6/7-7.--------------/7-7-7-7.--5-5---5.-----------------
D---7-7-7-7.--6-8/9-9.--------------/9-9-9-9.--7---------------2-2------
A-----------------------------2-2------------------------3~--3-----0.---
E-----------------------4~--4-----0.------------------------------------


e---------------------------------0-0-0-0-0-0-0-0.--0.--0-0.------------
B---------------------------------5-6-5-4-3-2-1-0.--1.--1-1.------------
G--/5-5-5-5.--4-7---7.------------------------------2.--2-2.--5-5-5~----
D--/7-7-7-7.--6-9---9.------------------------------2.--2-2.--4-4-4~----
A-----------------------------2-/-------------------0.--0-0.--5-5-5~----
E-----------------------4~----------------------------------------------


e--------------------------------------------------------0.-------------
B--------------------------------------------------------0.-------------
G-----------------------------------------------------------------------
D-----------------------------------------------------------------------
A------------------------------3-5.--6(7)~------------------------------
E--5-3-5-5-5-3-5~--5-3-5~--5-5------------------------------------------