Showing posts with label ellert nordmark. Show all posts
Showing posts with label ellert nordmark. Show all posts

20171003

ELLERT NORDMARK I REMEMBER ELVIS PRESLEY TAB (INSTRUMENTAL GUITAR COVER)

Ellert Nordmark plays I Remember Elvis Presley (Danny Mirror)
Very nice instrumental guitar cover.
Download the TAB below.



ELLERT NORDMARK I REMEMBER ELVIS PRESLEY TAB

GP5 + GP6 + PDF >>

Part 1

e-----------------------------------------------------------------------
B-----------------------------------------------------------------------
G-----------------------------------------------------------------------
D-----------0-2-4-4-4-4-2-0---------------------------------------------
A---4-4-4-4-----------------4-------------------------------------------
E-----------------------------------------------------------------------
    x x x x x x x x x x x x 


e-----------------------------------------------------------------------
B-----------------------------------------------------------------------
G----------------------------------2~-----------------------------------
D-------0-2-------0-2-2/4~-----2/4--------------------------------------
A---4---------4---------------------------------------------------------
E-----------------------------------------------------------------------


e-----------------------------------------------------------------------
B-----------------------------------------------------------------------
G---1---2-2/4-2---1-----------------------------------------------------
D-------------------4-2~------------------------------------------------
A-----------------------------------------------------------------------
E-----------------------------------------------------------------------

20160717

ELLERT NORDMARK HOPELESSLY DEVOTED TO YOU TAB (INSTRUMENTAL GUITAR COVER)

Ellert Nordmark plays Olivia Newton John's Hopelessly Devoted To You.
Very nice instrumental guitar cover.
See the TAB under the video.



ELLERT NORDMARK HOPELESSLY DEVOTED TO YOU TAB

GP5 + GP6 + PDF >>

Part 1

e-----------------------------------------------------------------------
B---6---5-6---6/8-6---5~-------6---5-6---8-5~---------------------------
G-----------------------------------------------------------------------
D-----------------------------------------------------------------------
A-----------------------------------------------------------------------
E-----------------------------------------------------------------------


e-----------------------------------------------------------------------
B---6---5-6---6/8-6---5-6---6/8-5~--------------------------------------
G-----------------------------------------------------------------------
D-----------------------------------------------------------------------
A-----------------------------------------------------------------------
E-----------------------------------------------------------------------


Part 2

e-----------------------------------------------------------------------
B-----------------------------------------------------------------------
G----------------------------1-1-1h2------------------------------------
D-----2~---------2--2~---------------4~---------------------------------
A---4----------4--4-----------------------------------------------------
E-----------------------------------------------------------------------


20160221

ELLERT NORDMARK LAST DATE TAB


Ellert Nordmark plays Last Date, very nice instrumental guitar cover.
Great Fender Stratocaster!
See the TAB under the video.



ELLERT NORDMARK LAST DATE TAB

GP5 + GP6 + PDF >>

Part 1

e-----------------------------------------------------------------------
B---------------------------8-9-10-8------------------------------------
G----------------------------------------9-7-5-5h7----------------------
D-----------------------------------------------------5h7---------------
A---------------------------------------------------8-------------------
E---3-3-3-5-5-5-7-7-7-8-------------------------------------------------
    x x x x x x x x x

e-----------------------------------------------------------------------
B---------------8-9-10-8------------------------------------------------
G----------------------------9-7-5-5h7----------------------------------
D---7-5-----------------------------------5h7---------------------------
A-------8-7-----------------------------8-------------------------------
E-----------------------------------------------------------------------


e-----------------------------------------------------------------------
B---------------8-9-10-8------------------------------------------------
G----------------------------9-7-5-5h7----------------------------------
D---7-5-----------------------------------5h7---------------------------
A-------8-7-----------------------------8-------------------------------
E-----------------------------------------------------------------------


20150813

ELLERT NORDMARK LILLA VACKRA ANNA TAB


Ellert Nordmark plays Lilla Vackra Anna.
Download the Guitar Pro Tab below.



ELLERT NORDMARK LILLA VACKRA ANNA TAB

GP5 + GP6 + PDF >>

Part 1

e-----------------------------------------------------------------------
B-----------------------------------------------------------------------
G-----------------------------------------------------------------------
D---2-------2.--2.--2---------------------------------------------------
A---0-------0.--0.--0---------------------------------------------------
E-----------------------------------------------------------------------


e-----------------------------------------------------------------------
B-----------------------------------------------------------------------
G-----------------------------------------------------------------------
D---------------------2---2---------------------------------------------
A-----0---0---4---4-----------0-0---------------------------------------
E---0---------------------------------4---------------------------------


e-----------------------------------------------------------------------
B-----------------------------------------------------------------------
G---------------------1---1---------------------------------------------
D-------------2---2-----------0-0---------------------------------------
A-----2---2---------------------------4---------------------------------
E---4-------------------------------------------------------------------